rock
 
|tablatures   |lyrics   |discussion forums   |more tabs @ XGuitar.com

Rush tabs

Turn the Page guitar tab

TURN THE PAGE
                               As recorded by Rush
          (From the 1987 Album HOLD YOUR FIRE (MERCURY 314 534 636-2))

Words by Peart Music by Lee and Lifeson
Arranged by Rush and Peter Collins
Copyright 1987 Core Music Publishing
Transcribed by Richard J. Soto 

2003-06-12  Tab File Version 1.1
This file is available in midi playable Power Tab file format online at
http://www.powertabs.net/pta.php?page=user,5342

For Solo, at measure #s 102-103,  the Artificial Harmonics on the
12th & 14th frets, thumb/pick the first set of notes at the 12th & 14th frets,
to the left of the middle pickup (on a strat, looking down). all other AHs
thereafter, thumb/pick to the right of the middle pickup.

The "Big Dive Bomb" in measure #s 115-116, is a cool wail that
*many* "hair-metal" guitarists had used primarily in the
mid-late 1980's that's produced as a Natural Harmonic on the B string
slightly higher than the 2nd fret (aka fret# 2.4 [two point four] ) and just
a slight tad below the middle of the fret as measured necklength-wise.
That harmonic cannot be notated as described due to Power Tabs limitations
so instead, for purposes of it playing correctly within Power Tab,
I tabbed it as an artificial harmonic and placed the right note and octave
accordingly so please be aware of this.

Note: In measure #80, due to the Power Tab's set fret number ceiling,
I used an artificial harmonic to produce the high note for the synth.

Big thanks to Jim Cirronella & Chuck Bruce for their
suggestions of the guitar's arpeggios within the choruses.


          C#                 F#                 E                A5
      x 4 6 6 6 x        2 4 4 3 2 2       0 2 2 1 0 0       x 0 2 2 x x

          B5                   D5
      x 2 4 4 x x          x x 0 2 3 x

Gtr I (E A D G B E) - 'Distortion'
Gtr II (E A D G B E) - 'Overdriven'
Gtr III (E A D G B E) - 'Clean Chorusy Sound'
Gtr IV (E A D G B E) - 'Keyboards'
Gtr V (E A D G B E) - 'Lower Keys'

 Intro
  Q=158
                   B5/F#           A5/E
 6/4
  Gtrs IV, V
                   <               <
  Wx2              W.              W.
|----------------|-7-------------|-5-----|
|----------------|-7-------------|-5-----|
|----------------|---------------|-------|
|----------------|---------------|-------|
|----------------|---------------|-------|
|----------------|---------------|-------|


  G#   G#7sus4                         G#   G#7sus4
  Gtrs I, II
  Q.   E +W           +W.              Q.   E +W           +W.
|-4----4-(4)--------|-(4)------------|-4----4-(4)--------|-(4)----|
|-4----4-(4)--------|-(4)------------|-4----4-(4)--------|-(4)----|
|-5----6-(6)--------|-(6)------------|-5----6-(6)--------|-(6)----|
|-6----4-(4)--------|-(4)------------|-6----4-(4)--------|-(4)----|
|-6----6-(6)--------|-(6)------------|-6----6-(6)--------|-(6)----|
|-4----4-(4)--------|-(4)------------|-4----4-(4)--------|-(4)----|


 Verse
  Wx4
|--------|
|--------|
|--------|
|--------|
|--------|
|--------|


  G#   G#7sus4                         G#   G#7sus4
  Q.   E +W           +W.              Q.   E +W           +W.
|-4----4-(4)--------|-(4)------------|-4----4-(4)--------|-(4)----|
|-4----4-(4)--------|-(4)------------|-4----4-(4)--------|-(4)----|
|-5----6-(6)--------|-(6)------------|-5----6-(6)--------|-(6)----|
|-6----4-(4)--------|-(4)------------|-6----4-(4)--------|-(4)----|
|-6----6-(6)--------|-(6)------------|-6----6-(6)--------|-(6)----|
|-4----4-(4)--------|-(4)------------|-4----4-(4)--------|-(4)----|


                                     ~~~
  Wx3              H    E  E   E  E  H
|----------------|-------------------------|
|----------------|-------------------------|
|----------------|--------[5]-[3]-2-[3]----|
|----------------|-------------------------|
|----------------|-------------------------|
|----------------|-------------------------|


  D     D7sus4                             D     D7sus4
   Q.    E  +W            +W.               Q.    E  +W            +W.
|-10----10-(10)--------|-(10)------------|-10----10-(10)--------|-(10)----|
|-10----10-(10)--------|-(10)------------|-10----10-(10)--------|-(10)----|
|-11----12-(12)--------|-(12)------------|-11----12-(12)--------|-(12)----|
|-12----10-(10)--------|-(10)------------|-12----10-(10)--------|-(10)----|
|-12----12-(12)--------|-(12)------------|-12----12-(12)--------|-(12)----|
|-10----10-(10)--------|-(10)------------|-10----10-(10)--------|-(10)----|


 Pre-Chorus
  C#          F#                E            A         B
 4/4
  Gtr IV
  H    H       H       H        H     H      E E  E  E  E  E  e E
|------9----|---------14------|------12----|---9-------11---------|
|-----------|-----------------|------------|-----10-------12------|
|-----------|-----------------|------------|--------11-------13---|
|-----------|-----------------|------------|----------------------|
|-----------|-----------------|------------|----------------------|
|-----------|-----------------|------------|----------------------|
|
| Gtr V
| W           +Q   Q   E E Q    W            H          H
|-----------|-----------------|------------|----------------------|
|-----------|-----------------|------------|----------------------|
|-----------|-----------------|------------|----------------------|
|-----------|------4---4-6-4--|------------|----------------------|
|-4---------|-(4)-------------|-7----------|----------------------|
|-----------|-----------------|------------|-5----------7---------|


  C#          F#                E            A     B
 4/4
  H    H       H       H        H     H       H     H
|------9----|---------14------|------12----|-12----11----|
|-----------|-----------------|------------|-------------|
|-----------|-----------------|------------|-------------|
|-----------|-----------------|------------|-------------|
|-----------|-----------------|------------|-------------|
|-----------|-----------------|------------|-------------|
|
| W           +Q   Q   E E Q    W             H     H
|-----------|-----------------|------------|-------------|
|-----------|-----------------|------------|-------------|
|-----------|-----------------|------------|-------------|
|-----------|------4---4-6-4--|------------|-------------|
|-4---------|-(4)-------------|-7----------|-------------|
|-----------|-----------------|------------|--5-----7----|


  C#          F#
 4/4
  H    H       H       H         W           +W
|------9----|---------14------|-14--------|-(14)------------|
|-----------|-----------------|-----------|-----------------|
|-----------|-----------------|-----------|-----------------|
|-----------|-----------------|-----------|-----------------|
|-----------|-----------------|-----------|-----------------|
|-----------|-----------------|-----------|-----------------|
|
| W           +Q   Q   E E Q     W            H       H
|-----------|-----------------|-14--------|-(14)----(14)----|
|-----------|-----------------|-----------|-----------------|
|-----------|-----------------|-----------|-----------------|
|-----------|------4---4-6-4--|--4--------|-----------------|
|-4---------|-(4)-------------|-----------|---7-------6-----|
|-----------|-----------------|-----------|-----------------|


 Chorus
  C#                F#              E                B5
 4/4
  Gtrs I, III
  E E E Q  E +Q     E E E Q  E Q    Q  E Q  E +Q     E E E +Q    E E +E
|-----------------|---------------|----------------|---------------------|
|-------0---------|-------0----0--|------0---------|---------------------|
|-----6----4-(4)--|-----3----3----|---------4-(4)--|-----4-(4)-----4-(4)-|
|---6-------------|---4-----------|----2-----------|---2---------4-------|
|-4---------------|---------------|----------------|-0---------2---------|
|-----------------|-2-------------|-0--------------|---------------------|
  W                 W               W                H         H


  C#                F#                D
 4/4
  E E E Q  E +Q     E E E Q  E +Q     E E E Q  Q  E   E E E E H
|-----------------|-----------------|-------0-------|---------0----|
|-------0---------|-------0---------|-----3----3----|-----3--------|
|-----6----4-(4)--|-----3----3-(3)--|---2---------2-|---2---4------|
|---6-------------|---4-------------|-0-------------|-0------------|
|-4---------------|-----------------|---------------|--------------|
|-----------------|-2---------------|---------------|--------------|
  W                 W                 W               W


  C#                F#
 4/4
  Gtr IV
  W                  W
|-9---------------|-14-----------------|
|-----------------|--------------------|
|-----------------|--------------------|
|-----------------|--------------------|
|-----------------|--------------------|
|-----------------|--------------------|
|
| Gtr V
| W                 +Q    Q   E E  Q
|-----------------|--------------------|
|-----------------|--------------------|
|-----------------|--------------------|
|-----------------|-------4---4-6--4---|
|-4---------------|-(4)----------------|
|-----------------|--------------------|
|
| Gtrs I, III
| E E E Q  E +Q      E  E E Q   E +Q
|-----------------|--------------------|
|-------0---------|---------0----------|
|-----6----4-(4)--|-------3-----3-(3)--|
|---6-------------|-----4--------------|
|-4---------------|--------------------|
|-----------------|--2-----------------|
  W                  W


  E                 A          B
   W                 H          H
|-12--------------|-12---------11---------|
|-----------------|-----------------------|
|-----------------|-----------------------|
|-----------------|-----------------------|
|-----------------|-----------------------|
|-----------------|-----------------------|
|
|  W                 H          H
|-----------------|-----------------------|
|-----------------|-----------------------|
|-----------------|-----------------------|
|-----------------|-----------------------|
|--7--------------|-----------------------|
|-----------------|--5----------7---------|
|
|  Q  E Q  E +Q      E E E +Q     E E +E
|-----------------|-----------------------|
|-------0---------|-----------------------|
|----------4-(4)--|------4-(4)------4-(4)-|
|-----2-----------|----2----------4-------|
|-----------------|--0----------2---------|
|--0--------------|-----------------------|
   W                 H          H


  C#                F#                   D
 4/4
  W                  W                    W                +W
|-9---------------|-14-----------------|-14-------------|-(14)---------------||
|-----------------|--------------------|-15-------------|-(15)---------------||
|-----------------|--------------------|----------------|--------------------||
|-----------------|--------------------|----------------|--------------------||
|-----------------|--------------------|----------------|--------------------||
|-----------------|--------------------|----------------|--------------------||
|
| W                 +Q    Q   E E  Q      W                 H          H
|-----------------|--------------------|-14-------------|-(14)-------(14)----||
|-----------------|--------------------|-15-------------|-(15)-------(15)----||
|-----------------|--------------------|----------------|--------------------||
|-----------------|-------4---4-6--4---|--4-------------|--------------------||
|-4---------------|-(4)----------------|----------------|---7----------6-----||
|-----------------|--------------------|----------------|--------------------||
|
| E E E Q  E +Q      E  E E Q   E +Q      E E E Q  Q  E     E  E E E   Q   Q
|-----------------|--------------------|--------0-------|--------------0-----||
|-------0---------|---------0----------|------3----3----|--------3---------3-||
|-----6----4-(4)--|-------3-----3-(3)--|----2---------2-|------2---4---------||
|---6-------------|-----4--------------|--0-------------|---0----------------||
|-4---------------|--------------------|----------------|--------------------||
|-----------------|--2-----------------|----------------|--------------------||
  W                  W                    W                 W


 Verse
  B    B7sus4
 6/4
  Gtrs I, II
  Q.   E +W           +W.              +W.
|-7----7-(7)--------|-(7)------------|-(7)----|
|-7----7-(7)--------|-(7)------------|-(7)----|
|-8----9-(9)--------|-(9)------------|-(9)----|
|-9----7-(7)--------|-(7)------------|-(7)----|
|-9----9-(9)--------|-(9)------------|-(9)----|
|-7----7-(7)--------|-(7)------------|-(7)----|


  B    B7sus4                     B7sus4
                                         \0.25/   \0.25/
  Q.   E +W           +Q   +H       Q   +Q       +Q
|-7----7-(7)--------|-(7)--(7)----^[7]--(7)------(7)------|
|-7----7-(7)--------|-(7)--(7)----^[7]--(7)------(7)------|
|-8----9-(9)--------|-(9)--(9)----^[9]--(9)------(9)------|
|-9----7-(7)--------|-(7)--(7)----^[7]--(7)------(7)------|
|-9----9-(9)--------|-(9)--(9)----^[9]--(9)------(9)------|
|-7----7-(7)--------|-(7)--(7)----^[7]--(7)------(7)------|


  G#   G#7sus4
                           Gtr II
  Q.   E +W           +Q   E E +E  E E E Q  E E
|-4----4-(4)--------|-(4)-----------------------|
|-4----4-(4)--------|-(4)--4-------4-----4----4-|
|-5----6-(6)--------|-(6)--5-5-(5)-6---6-6--5-5-|
|-6----4-(4)--------|-(4)-----------------------|
|-6----6-(6)--------|-(6)-----------------------|
|-4----4-(4)--------|-(4)-----------------------|


        Gtrs I, II
        PM----------|
  +Q.   Q  E E Q  E E E   Q  +E  Q  E E Q  E E E
|-----------------------|--------------------------|
|-(4)-------------------|--------------------------|
|-(5)-------------------|--------------------------|
|-------4--6---6--4-6---|-6--(6)-4--6---6--4-6-----|
|-----------------------|-6--(6)-6--6---6--6-6-----|
|-----------------------|--------------------------|


  F    F7sus4                     F
  Q.   E +W           +H     +Q   E E E E E E
|-1----1-(1)--------|-(1)----(1)--1-1-1-1-1-1-|
|-1----1-(1)--------|-(1)----(1)--1-1-1-1-1-1-|
|-2----3-(3)--------|-(3)----(3)--2-2-2-2-2-2-|
|-3----1-(1)--------|-(1)----(1)--3-3-3-3-3-3-|
|-3----3-(3)--------|-(3)----(3)--3-3-3-3-3-3-|
|-1----1-(1)--------|-(1)----(1)--1-1-1-1-1-1-|


  F    F7sus4
       ~~~~~~~~~~~~~~~~~~~~~~~~~~
  Q.   E +W           +H     +E  E E E E E E E
|-1----1-(1)--------|-(1)----(1)---------1-1-1-|
|-1----1-(1)--------|-(1)----(1)---------1-1-1-|
|-2----3-(3)--------|-(3)----(3)-3-3-3-3-3-3-3-|
|-3----1-(1)--------|-(1)----(1)-1-1-1-1-1-1-1-|
|-3----3-(3)--------|-(3)----(3)---------------|
|-1----1-(1)--------|-(1)----(1)---------------|


  D     D7sus4                         D
         ~~~~~~~~~~~~~~~~~~~~~~~~~~~~~
   Q.    E  +W            +H      +Q    E  E  Q   Q
|-10----10-(10)--------|-(10)----(10)----------------|
|-10----10-(10)--------|-(10)----(10)--10-10-10--10--|
|-11----12-(12)--------|-(12)----(12)--11-11-11--11--|
|-12----10-(10)--------|-(10)----(10)--12-12-12--12--|
|-12----12-(12)--------|-(12)----(12)--12-12-12--12--|
|-10----10-(10)--------|-(10)----(10)--10-10-10--10--|


  D                                    D/A
                                        \1.75_________/              \0.25/
                           ~~~~
   Q.    E  +W            +H      +Q    S       +E   +E.  +E   +E   +E
|----------------------|----------------------------------------------------|
|-10----10-(10)--------|-(10)----(10)---------------------------------------|
|-11----11-(11)--------|-(11)----(11)--11------(11)-(11)-(11)-(11)-(11)-----|
|-12----12-(12)--------|-(12)----(12)--12------(12)-(12)-(12)-(12)-(12)-----|
|-12----12-(12)--------|-(12)----(12)--12------(12)-(12)-(12)-(12)-(12)-----|
|-10----10-(10)--------|-(10)----(10)---------------------------------------|


 Pre-Chorus
  C#                 F#
 4/4
  Gtr IV
  H       H           H         H
|---------9--------|-----------14--------|
|------------------|---------------------|
|------------------|---------------------|
|------------------|---------------------|
|------------------|---------------------|
|------------------|---------------------|
|
| Gtr V
| W                  +Q    Q    E E  Q
|------------------|---------------------|
|------------------|---------------------|
|------------------|---------------------|
|------------------|-------4----4-6--4---|
|-4----------------|-(4)-----------------|
|------------------|---------------------|
|
| Gtrs I, III
| E E E Q   E +Q      E  E E Q    E +Q
|------------------|---------------------|
|-------0----------|---------0-----------|
|-----6-----4-(4)--|-------3------3-(3)--|
|---6--------------|-----4---------------|
|-4----------------|---------------------|
|------------------|--2------------------|
  W                   W


  E                  A          B
  H       H           H          H
|--------12--------|-12---------11---------|
|------------------|-----------------------|
|------------------|-----------------------|
|------------------|-----------------------|
|------------------|-----------------------|
|------------------|-----------------------|
|
| W                   H          H
|------------------|-----------------------|
|------------------|-----------------------|
|------------------|-----------------------|
|------------------|-----------------------|
|-7----------------|-----------------------|
|------------------|--5----------7---------|
|
| Q  E Q    E +Q      E E E +Q     E E +E
|------------------|-----------------------|
|------0-----------|-----------------------|
|-----------4-(4)--|------4-(4)------4-(4)-|
|----2-------------|----2----------4-------|
|------------------|--0----------2---------|
|-0----------------|-----------------------|
  W                   H          H


  C#                 F#
 4/4
  H       H           H         H
|---------9--------|-----------14--------|
|------------------|---------------------|
|------------------|---------------------|
|------------------|---------------------|
|------------------|---------------------|
|------------------|---------------------|
|
| W                  +Q    Q    E E  Q
|------------------|---------------------|
|------------------|---------------------|
|------------------|---------------------|
|------------------|-------4----4-6--4---|
|-4----------------|-(4)-----------------|
|------------------|---------------------|
|
| E E E Q   E +Q      E  E E Q    E +Q
|------------------|---------------------|
|-------0----------|---------0-----------|
|-----6-----4-(4)--|-------3------3-(3)--|
|---6--------------|-----4---------------|
|-4----------------|---------------------|
|------------------|--2------------------|
  W                   W


  D
   W                +W
|-14-------------|-(14)-----------------|
|----------------|----------------------|
|----------------|----------------------|
|----------------|----------------------|
|----------------|----------------------|
|----------------|----------------------|
|
|  W                 H          H
|-14-------------|-(14)-------(14)------|
|----------------|----------------------|
|----------------|----------------------|
|--4-------------|----------------------|
|----------------|---7----------6-------|
|----------------|----------------------|
|
|  E E Q  E E Q      E  E E Q      E Q
|----------------|----------0-----------|
|------3------3--|--------3----------3--|
|----2------2----|------2----------4----|
|--0------0------|---0------------------|
|----------------|----------------------|
|----------------|----------------------|
   H      H          W


 Chorus
  C#                 F#
 4/4
   W                  W
|-21---------------|-26-----------------|
|------------------|--------------------|
|------------------|--------------------|
|------------------|--------------------|
|------------------|--------------------|
|------------------|--------------------|
|
|  W                 +Q    Q   E E  Q
|------------------|--------------------|
|------------------|--------------------|
|------------------|--------------------|
|------------------|-------4---4-6--4---|
|--4---------------|-(4)----------------|
|------------------|--------------------|
|
|  E E E Q  E +Q      E  E E Q   E +Q
|------------------|--------------------|
|--------0---------|---------0----------|
|------6----4-(4)--|-------3-----3-(3)--|
|----6-------------|-----4--------------|
|--4---------------|--------------------|
|------------------|--2-----------------|
   W                  W


  E                   A          B
    W                  H          H
|-[19]--------------|-17---------19---------|
|-------------------|-----------------------|
|-------------------|-----------------------|
|-------------------|-----------------------|
|-------------------|-----------------------|
|-------------------|-----------------------|
|
|   W                  H          H
|-------------------|-----------------------|
|-------------------|-----------------------|
|-------------------|-----------------------|
|-------------------|-----------------------|
|---7---------------|-----------------------|
|-------------------|--5----------7---------|
|
|   Q   E Q  E +Q      E E E +Q     E E +E
|-------------------|-----------------------|
|---------0---------|-----------------------|
|------------4-(4)--|------4-(4)------4-(4)-|
|-------2-----------|----2----------4-------|
|-------------------|--0----------2---------|
|---0---------------|-----------------------|
    W                  H          H


  C#                 F#                   D
 4/4
   W                  W                    W                +W
|-21---------------|-21-----------------|-22-------------|-(22)---------------|
|------------------|--------------------|----------------|--------------------|
|------------------|--------------------|----------------|--------------------|
|------------------|--------------------|----------------|--------------------|
|------------------|--------------------|----------------|--------------------|
|------------------|--------------------|----------------|--------------------|
|
|  W                 +Q    Q   E E  Q      W                 H          H
|------------------|--------------------|-22-------------|-(22)-------(22)----|
|------------------|--------------------|----------------|--------------------|
|------------------|--------------------|----------------|--------------------|
|------------------|-------4---4-6--4---|--4-------------|--------------------|
|--4---------------|-(4)----------------|----------------|---7----------6-----|
|------------------|--------------------|----------------|--------------------|
|
|  E E E Q  E +Q      E  E E Q   E +Q      E E E Q  Q  E     E  E E E   Q   Q
|------------------|--------------------|--------0-------|--------------0-----|
|--------0---------|---------0----------|------3----3----|--------3---------3-|
|------6----4-(4)--|-------3-----3-(3)--|----2---------2-|------2---4---------|
|----6-------------|-----4--------------|--0-------------|---0----------------|
|--4---------------|--------------------|----------------|--------------------|
|------------------|--2-----------------|----------------|--------------------|
   W                  W                    W                 W


 Bridge
  B5   A5                      B5   A5   G5
  Gtrs I, II
  E Q  E +H       +W           Q.   Q.   Q    +H.      E E
|---------------|------------|-----------3--|-(3)------3----||
|---------------|------------|-----------3--|-(3)------3----||
|-4----2-(2)----|-(2)--------|-4----2----0--|-(0)------0----||
|-4----2-(2)----|-(2)--------|-4----2----0--|-(0)------0----||
|-2----0-(0)----|-(0)--------|-2----0----x--|-(x)------x----||
|---------------|------------|-----------3--|-(3)------3----||


 Interlude
  F#m
 6/4
  Gtrs IV, V
   <
   W.               +W.               +W.
|----------------|-----------------|-----------------|
|-10-------------|-(10)------------|-(10)------------|
|-11-------------|-(11)------------|-(11)------------|
|-11-------------|-(11)------------|-(11)------------|
|--9-------------|--(9)------------|--(9)------------|
|----------------|-----------------|-----------------|
|
| Gtr III
|  W                 W                 W
|----------------|-----------------|-----------------|
|----------------|-----------------|-----------------|
|----------------|-----------------|-----------------|
|----------------|-----------------|-----------------|
|----------------|-----------------|-----------------|
|----------------|-----------------|-----------------|


   +W.               +W.                    +W.
|-----------------|----------------------|---------|
|-(10)------------|-(10)-----------------|-(10)----|
|-(11)------------|-(11)-----------------|-(11)----|
|-(11)------------|-(11)-----------------|-(11)----|
|--(9)------------|--(9)-----------------|--(9)----|
|-----------------|----------------------|---------|
|
|                                  PM|
|   W                 W         Q  E  E      W
|-----------------|----------------------|---------|
|-----------------|-------------------0--|---------|
|-----------------|----------------------|---------|
|-----------------|----------------0-(0)-|---------|
|-----------------|----------------------|---------|
|-----------------|----------------------|---------|


                                  2/4
   +W.                              +H
|--------------------------------|--------------|
|-(10)---------------------------|-(10)---------|
|-(11)---------------------------|-(11)---------|
|-(11)---------------------------|-(11)---------|
|--(9)---------------------------|--(9)---------|
|--------------------------------|--------------|
|
|   E  E E E E  E E E   E E E  E     E  E   E E
|--------------------------------|--------------|
|----------0------0-------0------|---0--------0-|
|--------7-----/9-----/11-----11-|--------/13---|
|------0-----0------0-------0----|------0-------|
|--------------------------------|--------------|
|--------------------------------|--------------|


 Guitar Solo
 4/4
  Gtrs I, II
             \3_______________|              \0.25/  \0.25/  \0.25/  \0.25/
             TP   TP  TP  TP  TP
   Q    +E   E    E   E   E   E     H        +E      +E      +E      +E
|--------------------------------|-10b12====(10)----(10)----(10)----(10)-----|
|-<5>--(<5>)---------------------|-------------------------------------------|
|--------------------------------|-------------------------------------------|
|--------------------------------|-------------------------------------------|
|--------------------------------|-------------------------------------------|
|------------x---(x)-(x)-(x)-(x)-|-------------------------------------------|


   +Q   S  S S  S S S  S S  S S E
|-(10)r=7h10p7----7-7-------------|
|--------------10-----10p7h10p7---|
|-------------------------------9-|
|---------------------------------|
|---------------------------------|
|---------------------------------|


       \4___|
  E E +E   +E  Q   Q         +E   +Q    +Q    +E    E    E
|-----------------15b17===|=(15)-(15)--(15)r=(15)-[12]-[14]-|
|-7-----------------------|---------------------------------|
|---9-(9)--(9)------------|---------------------------------|
|-------------------------|---------------------------------|
|-------------------------|---------------------------------|
|-------------------------|---------------------------------|


                                     \0.75/   \0.75/   \0.75/   \0.75/
    E    E    S    S   E   Q        +S       +S       +S       +S
|-[14]-[12]-[12]p[10]--------------------------------------------------|
|---------------------12-[12]b15===(12)-----(12)-----(12)-----(12)-----|
|----------------------------------------------------------------------|
|----------------------------------------------------------------------|
|----------------------------------------------------------------------|
|----------------------------------------------------------------------|


                                   \4___
   +E    E.   S.   E    S.   Q     E
|--------------------------------------|
|-(12)r[12]-[10]-[12]-[10]-[12]--[10]--|
|--------------------------------------|
|--------------------------------------|
|--------------------------------------|
|--------------------------------------|


                 |
   +H      +S   +S  S +S  E E    Q       +E    Q  S  S E E
|-----------------------------|----------------------------|
|-(10)----(10)-(10)-----------|-10b12===(10)r-10--8h10p8---|
|---------------------------7-|--------------------------9-|
|-------------------7-(7)s9---|----------------------------|
|-----------------------------|----------------------------|
|-----------------------------|----------------------------|


   \0.5/  \0.5/  \0.5/  \0.5/
                                                                   |-3-|
  +E     +E     +E     +E     +E  +E  E E   S S S S S S S S  S  S  E E E S  S
|-----------------------------------------|--------------------10-10p9p7-7----|
|-----------------------------------------|-------------7-9-10-------------10-|
|-(9)----(9)----(9)----(9)----(9)-(9)-----|-------7-8-9-----------------------|
|-----------------------------------------|-7-8-9-----------------------------|
|-------------------------------------7-9-|-----------------------------------|
|-----------------------------------------|-----------------------------------|


            \0.75/  \0.75/  \0.75/  \0.75/  \0.75/  \0.75/  \0.75/
  q  E     +S      +S      +S      +S      +S      +S      +S      E.
|---------------------------------------------------------------------|
|-9--9b12==(9)-----(9)-----(9)-----(9)-----(9)-----(9)-----(9)r----x\-|
|------------------------------------------------------------------x\-|
|---------------------------------------------------------------------|
|---------------------------------------------------------------------|
|---------------------------------------------------------------------|


 6/4
  E +E  E E S +S   E  E  E  E  E  E E
|-------------------------------------|
|-------------------------------------|
|-7-(7)-----9-(9)s11-11-11-11s14-14---|
|-------------------------------------|
|-------7-7---------------------------|
|-------------------------------------|


  E +E  E E E Q   E  E  E  E  E   E Q  E E E E  E  E  E  E  E
|-------------------------------|-----------------------------||
|-------------------------------|-----------------------------||
|-7-(7)-----9----11s14-11-14\---|-7----9-9-----11s14-11-14\---||
|-------------9-----------------|----------9-9----------------||
|-------7-7---------------------|---7-------------------------||
|-------------------------------|-----------------------------||


  B5   A5                      B5   A5
 4/4
  Gtrs I, II
                                                 \7
  Q.   E +H       +W           Q.   Q.    Q     +W
|---------------|------------|----------------|--------|
|---------------|------------|-----------[3]--|-(3)----|
|-4----2-(2)----|-(2)--------|-4----2---------|--------|
|-4----2-(2)----|-(2)--------|-4----2---------|--------|
|-2----0-(0)----|-(0)--------|-2----0---------|--------|
|---------------|------------|----------------|--------|


  B5         A5
 4/4
  Gtr II
                  \0.5/  \0.5/  \0.5/  \0.5/
  E  +E  +E   E  +E     +E     +E     +E
|--------------------------------------------|
|--------------------------------------------|
|-2--(2)-(2)-[2]-(2)----(2)----(2)----(2)----|
|--------------------------------------------|
|--------------------------------------------|
|--------------------------------------------|
|
| Gtr I
| Q.          E  +H
|--------------------------------------------|
|--------------------------------------------|
|-4-----------2--(2)-------------------------|
|-4-----------2--(2)-------------------------|
|-2-----------0--(0)-------------------------|
|--------------------------------------------|

                                                          B5   A5   G5
   \0.5/  \0.5/           \0.25/  \0.25/  \0.25/  \0.25/
  +E     +E     E    +E  +E      +E      +E      +E        Q.   Q.   Q
|--------------------------------------------------------|-----------3--|
|---------------4b5==(4)-(4)-----(4)-----(4)-----(4)r----|-----------3--|
|-(2)----(2)---------------------------------------------|-4----2----0--|
|--------------------------------------------------------|-4----2----0--|
|--------------------------------------------------------|-2----0----x--|
|--------------------------------------------------------|-----------3--|
|
|
| +W                                                       Q.   Q.   Q
|--------------------------------------------------------|-----------3--|
|--------------------------------------------------------|-----------3--|
|-(2)----------------------------------------------------|-4----2----0--|
|-(2)----------------------------------------------------|-4----2----0--|
|-(0)----------------------------------------------------|-2----0----x--|
|--------------------------------------------------------|-----------3--|


\.75/\.75/\.75/\.75/\.75/\.75/\.75/\.75/\.75/\.75/\.75/\.75/\.75/\.75/\.75/\.75
 +S  +S  +S  +S  +S  +S  +S  +S  +S  +S  +S  +S  +S  +S  +S  +S
|(3)-(3)-(3)-(3)-(3)-(3)-(3)-(3)-(3)-(3)-(3)-(3)-(3)-(3)-(3)-(3)--||
|(3)-(3)-(3)-(3)-(3)-(3)-(3)-(3)-(3)-(3)-(3)-(3)-(3)-(3)-(3)-(3)--||
|(0)-(0)-(0)-(0)-(0)-(0)-(0)-(0)-(0)-(0)-(0)-(0)-(0)-(0)-(0)-(0)--||
|(0)-(0)-(0)-(0)-(0)-(0)-(0)-(0)-(0)-(0)-(0)-(0)-(0)-(0)-(0)-(0)--||
|(x)-(x)-(x)-(x)-(x)-(x)-(x)-(x)-(x)-(x)-(x)-(x)-(x)-(x)-(x)-(x)--||
|(3)-(3)-(3)-(3)-(3)-(3)-(3)-(3)-(3)-(3)-(3)-(3)-(3)-(3)-(3)-(3)--||
|
|.75/\.75/\.75/\.75/\.75/\.75/\.75/\.75/\.75/\.75/\.75/\.75/\.75/\.75/\.75/\.75
|+S  +S  +S  +S  +S  +S  +S  +S  +S  +S  +S  +S  +S  +S  +S  +S
|(3)-(3)-(3)-(3)-(3)-(3)-(3)-(3)-(3)-(3)-(3)-(3)-(3)-(3)-(3)-(3)--||
|(3)-(3)-(3)-(3)-(3)-(3)-(3)-(3)-(3)-(3)-(3)-(3)-(3)-(3)-(3)-(3)--||
|(0)-(0)-(0)-(0)-(0)-(0)-(0)-(0)-(0)-(0)-(0)-(0)-(0)-(0)-(0)-(0)--||
|(0)-(0)-(0)-(0)-(0)-(0)-(0)-(0)-(0)-(0)-(0)-(0)-(0)-(0)-(0)-(0)--||
|(x)-(x)-(x)-(x)-(x)-(x)-(x)-(x)-(x)-(x)-(x)-(x)-(x)-(x)-(x)-(x)--||
|(3)-(3)-(3)-(3)-(3)-(3)-(3)-(3)-(3)-(3)-(3)-(3)-(3)-(3)-(3)-(3)--||


 Guitar Break - Chorus
  G#          C#          B              A          B
  Gtr IV
   W           W           W              H          H
|-16--------|-----------|--------------|-------------------------|
|-----------|-14--------|--------------|-------------------------|
|-----------|-----------|-16-----------|-14---------16-----------|
|-----------|-----------|--------------|-------------------------|
|-----------|-----------|--------------|-------------------------|
|-----------|-----------|--------------|-------------------------|
|
| Gtr V
|  W           W           W              H          H
|-----------|-----------|--------------|-------------------------|
|--9--------|-----------|--------------|-------------------------|
|-----------|--6--------|--------------|-------------------------|
|-----------|-----------|--9-----------|--7----------9-----------|
|-----------|-----------|--------------|-------------------------|
|-----------|-----------|--------------|-------------------------|
|
| Gtr IV
|  W           W           H    Q  E E    E  E E  E  E  E  E  E
|-----------|-----------|------------9-|--9------12-11-----------|
|-----------|-----------|--------------|----10---------12----14--|
|-----------|-----------|--------------|-------9----------11-----|
|-----------|-----------|--------------|-------------------------|
|-----------|-----------|--------------|-------------------------|
|-----------|-----------|--------------|-------------------------|


  C#5                                     A5/E
  Gtr IV                                  Gtrs I, IV, V
   W            W             W             W
|-----------|-------------|-------------|--17-----||
|-----------|--11---------|-------------|--17-----||
|-----------|-------------|--11---------|---------||
|-11--------|-------------|-------------|---------||
|-----------|-------------|-------------|---------||
|-----------|-------------|-------------|---------||
|
| Gtrs II, IV, V
|  W           +W            +W             W
|-----------|-------------|-------------|---------||
|-----------|-------------|-------------|---------||
|-----------|-------------|-------------|-(14)----||
|-11--------|-(11)--------|-(11)--------|-(14)----||
|-11--------|-(11)--------|-(11)--------|-(12)----||
|--9--------|--(9)--------|--(9)--------|---------||


   Chorus
    C#                 F#
   4/4
    Gtr II
     W                  W
     |                  |
     /                  /

    Gtr IV
     W                  W
||--21---------------|-26-----------------|
||o------------------|--------------------|
||-------------------|--------------------|
||-------------------|--------------------|
||o------------------|--------------------|
||-------------------|--------------------|
|
|   Gtr V
|    W                 +Q    Q   E E  Q
||-------------------|--------------------|
||o------------------|--------------------|
||-------------------|--------------------|
||-------------------|-------4---4-6--4---|
||o--4---------------|-(4)----------------|
||-------------------|--------------------|
|
|   Gtrs I, III
|    E E E Q  E +Q      E  E E Q   E +Q
||-------------------|--------------------|
||o--------0---------|---------0----------|
||-------6----4-(4)--|-------3-----3-(3)--|
||-----6-------------|-----4--------------|
||o--4---------------|--------------------|
||-------------------|--2-----------------|
     W                  W


  E                   A5         B5
    W                  H          H
    |                  |          |
    /                  /          /

    W                  H          H
|-[19]--------------|-17---------19----------|
|-------------------|------------------------|
|-------------------|------------------------|
|-------------------|------------------------|
|-------------------|------------------------|
|-------------------|------------------------|
|
|   W                  H          H
|-------------------|------------------------|
|-------------------|------------------------|
|-------------------|------------------------|
|-------------------|------------------------|
|---7---------------|------------------------|
|-------------------|--5----------7----------|
|
|   Q   E Q  E +Q      E E E +Q     E E +E
|-------------------|------------------------|
|---------0---------|------------------------|
|------------4-(4)--|------4-(4)------4-(4)--|
|-------2-----------|----2----------4--------|
|-------------------|--0----------2----------|
|---0---------------|------------------------|
    W                  H          H


  C#                 F#
 4/4
   W                  W
   |                  |
   /                  /

   W                  W
|-21---------------|-21-----------------|
|------------------|--------------------|
|------------------|--------------------|
|------------------|--------------------|
|------------------|--------------------|
|------------------|--------------------|
|
|  W                 +Q    Q   E E  Q
|------------------|--------------------|
|------------------|--------------------|
|------------------|--------------------|
|------------------|-------4---4-6--4---|
|--4---------------|-(4)----------------|
|------------------|--------------------|
|
|  E E E Q  E +Q      E  E E Q   E +Q
|------------------|--------------------|
|--------0---------|---------0----------|
|------6----4-(4)--|-------3-----3-(3)--|
|----6-------------|-----4--------------|
|--4---------------|--------------------|
|------------------|--2-----------------|
   W                  W


  D5
   W                +W
   |                 |
   /                 /

   W                +W                  3x
|-22-------------|-(22)-----------------||
|----------------|---------------------o||
|----------------|----------------------||
|----------------|----------------------||
|----------------|---------------------o||
|----------------|----------------------||
|
|  W                 H          H       3x
|-22-------------|-(22)-------(22)------||
|----------------|---------------------o||
|----------------|----------------------||
|--4-------------|----------------------||
|----------------|---7----------6------o||
|----------------|----------------------||
|
|  E E E Q  Q  E     E  E E E   Q   Q   3x
|--------0-------|--------------0-------||
|------3----3----|--------3---------3--o||
|----2---------2-|------2---4-----------||
|--0-------------|---0------------------||
|----------------|---------------------o||
|----------------|----------------------||
   W                 W


 Outro
  C#                 F#
 4/4
   W                  W
   |                  |
   /                  /

  Gtr IV
   W                  W
|--9---------------|-14---------------|
|------------------|------------------|
|------------------|------------------|
|------------------|------------------|
|------------------|------------------|
|------------------|------------------|
|
| Gtr V
|  W                  W
|------------------|------------------|
|------------------|------------------|
|------------------|-11---------------|
|-11---------------|------------------|
|------------------|------------------|
|------------------|------------------|
|
| Gtrs I, III
|  E E E Q  E +Q      E E E Q  E +Q
|------------------|------------------|
|--------0---------|--------0---------|
|------6----4-(4)--|------3----3-(3)--|
|----6-------------|----4-------------|
|--4---------------|------------------|
|------------------|--2---------------|
   W                  W


  E                 A5         B5
   W                 H          H
   |                 |          |
   /                 /          /

   W                 H          H
|-12--------------|-12---------11----------|
|-----------------|------------------------|
|-----------------|------------------------|
|-----------------|------------------------|
|-----------------|------------------------|
|-----------------|------------------------|
|
|  W                 H          Q    Q
|-----------------|------------------------|
|-----------------|------------------------|
|-----------------|------------------------|
|-14--------------|------------14---13-----|
|-----------------|-12---------------------|
|-----------------|------------------------|
|
|  Q  E Q  E +Q      E E E +Q     E  E +E
|-----------------|------------------------|
|-------0---------|------------------------|
|----------4-(4)--|------4-(4)-------4-(4)-|
|-----2-----------|----2----------4--------|
|-----------------|--0----------2----------|
|--0--------------|------------------------|
   W                 H          H


  C#                 F#
 4/4
   W                  W
   |                  |
   /                  /

   W                  W
|--9---------------|-14---------------|
|------------------|------------------|
|------------------|------------------|
|------------------|------------------|
|------------------|------------------|
|------------------|------------------|
|
|  W                  W
|------------------|------------------|
|------------------|------------------|
|------------------|-11---------------|
|-11---------------|------------------|
|------------------|------------------|
|------------------|------------------|
|
|  E E E Q  E +Q      E E E Q  E +Q
|------------------|------------------|
|--------0---------|--------0---------|
|------6----4-(4)--|------3----3-(3)--|
|----6-------------|----4-------------|
|--4---------------|------------------|
|------------------|--2---------------|
   W                  W


  D5
   W                  +W
   |                   |
   /                   /

   W                  +W
|-14---------------|-(14)-----------------||
|-15---------------|-(15)-----------------||
|------------------|----------------------||
|------------------|----------------------||
|------------------|----------------------||
|------------------|----------------------||
|
|  W                  +H         +H
|-14---------------|-(14)-------(14)------||
|-15---------------|-(15)-------(15)------||
|-11---------------|----------------------||
|------14----------|----------------------||
|----------12------|--12---------14-------||
|------------------|----------------------||
|  Q    Q   H          H          H
|
|  E E  Q   E E Q      E  E E Q      E Q
|------------------|----------0-----------||
|-------3-------3--|--------3----------3--||
|----2--------2----|------2----------4----||
|--0--------0------|---0------------------||
|------------------|----------------------||
|------------------|----------------------||
   H        H          W


  G#madd11/C#
  Gtrs II, III, IV, V
  W          +W           +W           +W
|----------|------------|------------|--------*|
|-0--------|-(0)--------|-(0)--------|-(0)----*|
|-6--------|-(6)--------|-(6)--------|-(6)----*|
|-6--------|-(6)--------|-(6)--------|-(6)----*|
|-4--------|-(4)--------|-(4)--------|-(4)----*|
|----------|------------|------------|--------*|


Duration Legend
---------------
W - whole; H - half; Q - quarter; E - 8th; S - 16th; T - 32nd; X - 64th;
a - acciaccatura + - note tied to previous; . - note dotted;
... - note double dotted
Uncapitalized letters represent notes that are staccato (1/2 duration)
Irregular groupings are notated above the duration line
Duration letters will always appear directly above the note/fret number it
represents the duration for.  Duration letters with no fret number below them
represent rests.  Multi-bar rests are notated in the form Wxn, where n is the
number of bars to rest for.  Low melody durations appear below the staff

Tablature Legend
----------------
 h   - hammer-on
 p   - pull-off
 b   - bend
 pb  - pre-bend
 r   - bend release (if no number after the r, then release immediately)
 /\  - slide into or out of (from/to "nowhere")
 s   - legato slide
 S   - shift slide
  - natural harmonic
[n]  - artificial harmonic
n(n) - tapped harmonic
 ~   - vibrato
 tr  - trill
 T   - tap
 TP  - trem. picking
 PM  - palm muting
\n/  - tremolo bar dip; n = amount to dip
 \n  - tremolo bar down
 n/  - tremolo bar up
/n\  - tremolo bar inverted dip
 =   - hold bend; also acts as connecting device for hammers/pulls
 <>  - volume swell (louder/softer)
 x   - on rhythm slash represents muted slash
 o   - on rhythm slash represents single note slash

Misc Legend
-----------
 |  - bar
||  - double bar
||o - repeat start
o|| - repeat end
*|  - double bar (ending)
 :  - bar (freetime)
 $  - Segno
 &  - Coda
Tempo markers -  = BPM(8/16=s8/s16), where s8 = swing 8ths,
s16 = swing 16ths


***************************************************************************************
* Generated using Power Tab Editor by Brad Larsen - http://powertab.guitarnetwork.org *
***************************************************************************************
  development and support by
dmitry ivanov