rock
 
|tablatures   |lyrics   |discussion forums   |more tabs @ XGuitar.com

Rush tabs

Totem guitar tab

TOTEM
                               As recorded by Rush
                       (From the 1996 Album TEST FOR ECHO)

Words and Music by Lee, Lifeson, and Peart
Transcribed by Keith Nelson - ob1gynob@hotmail.com
Last Updated: 2003-02-24

           G                   G5                  Gsus4                Gsus2
      x x x 7 8 7         x x x 7 8 10          x x x 7 8 8          x x x 7 8 5

           C                  Csus4                 C/A                Csus4/A
      x 3 5 5 5 0          x 3 5 5 6 x          x 0 5 5 5 0          x 0 5 5 6 x

          C/G                Csus4/G                C/F                Csus4/F
      5 x 5 5 5 0          5 x 5 5 6 x          3 x 5 5 5 0          3 x 5 5 6 x

       D(type 2)                D                Dsus4add9               A/D
      0 0 0 2 3 2          x x 0 2 3 2          x x 0 0 5 3          x x 0 2 2 0

          Em7                 Cadd9               D7sus4
      x x 2 0 3 3          x 3 2 0 3 3          x x 0 7 8 8

Gtr I (C G C F A D) - 'Acoustic'
Gtr II (D G C F A D) - 'Electric 1'
Gtr III (D G C F A D) - 'Electric 2'
Gtr IV (D G C F A D) - 'Electric 3 (natural harmonics)'

All notes sound one whole step lower than transcribed (key of Bb).
Chords sound one whole step lower than notation.

 Intro
  Q=120
  G              Gsus4 G5      G              Gsus4 Gsus2
 4/4
  Gtr I
  E S S +S S S S E S S E S S   E S S +S S S S E S S E S S
  | | |  | | | | | | | | | |   | | |  | | | | | | | | | |
  / / /  / / / / / x x / x x   / / /  / / / / / x x / x x

  Gtr II
  W                            W
|----------------------------|----------------------------|
|----------------------------|----------------------------|
|----------------------------|----------------------------|
|----------------------------|----------------------------|
|----------------------------|----------------------------|
|----------------------------|----------------------------|


  G              Gsus4 Gsus2
  E S S +S S S S E S S E S S
  | | |  | | | | | | | | | |
  / / /  / / / / / x x / x x

  W
|------------------------------|
|------------------------------|
|------------------------------|
|------------------------------|
|------------------------------|
|------------------------------|


                              Verse
  G              Gsus4 Gsus2   C               Csus4 C
  E S S +S S S S E S S E E     E S S +S  S S S E S S E S S
  | | |  | | | | | | | | |     | | |  |  | | | | | | | | |
  / / /  / / / / / x x / /     / / /  /  / / / / / / / / /

  W                            E S S +S  S S S Q     Q
|--------------------------||------------------------------|
|--------------------------||o-5-5-5-(5)-5-5-5-6-----5-----|
|--------------------------||--5-5-5-(5)-5-5-5-5-----5-----|
|--------------------------||--5-5-5-(5)-5-5-5-5-----5-----|
|--------------------------||o-----------------------------|
|--------------------------||------------------------------|


  C/A             Csus4/C/A
  E S S +S  S S S E S S E S S
  | | |  |  | | | | | | | | |
  / / /  /  / / / / / / / / /

  E S S +S  S S S Q     Q
|------------------------------|
|-5-5-5-(5)-5-5-5-6-----5------|
|-5-5-5-(5)-5-5-5-5-----5------|
|-5-5-5-(5)-5-5-5-5-----5------|
|------------------------------|
|------------------------------|


  C/G             Csus4/C/G
  E S S +S  S S S E S S E S S
  | | |  |  | | | | | | | | |
  / / /  /  / / / / / / / / /

  E S S +S  S S S Q     Q
|-----------------------------|
|-5-5-5-(5)-5-5-5-6-----5-----|
|-5-5-5-(5)-5-5-5-5-----5-----|
|-5-5-5-(5)-5-5-5-5-----5-----|
|-----------------------------|
|-----------------------------|


  C/F             Csus4/C/F     G              Gsus4 Gsus2
  E S S +S  S S S E S S E S S   E S S +S S S S E S S E S S
  | | |  |  | | | | | | | | |   | | |  | | | | | | | | | |
  / / /  /  / / / / / / / / /   / / /  / / / / / / / / / /

  E S S +S  S S S Q     Q       W
|-----------------------------|----------------------------|
|-5-5-5-(5)-5-5-5-6-----5-----|----------------------------|
|-5-5-5-(5)-5-5-5-5-----5-----|----------------------------|
|-5-5-5-(5)-5-5-5-5-----5-----|----------------------------|
|-----------------------------|----------------------------|
|-----------------------------|----------------------------|


  G              Gsus4 Gsus2   G              Gsus4 Gsus2
  E S S +S S S S E S S E S S   E S S +S S S S E S S E S S
  | | |  | | | | | | | | | |   | | |  | | | | | | | | | |
  / / /  / / / / / / / / / /   / / /  / / / / / / / / / /

  W                            W
|----------------------------|----------------------------|
|----------------------------|----------------------------|
|----------------------------|----------------------------|
|----------------------------|----------------------------|
|----------------------------|----------------------------|
|----------------------------|----------------------------|


  G              Gsus4 Gsus2
  E S S +S S S S E S S E S S
  | | |  | | | | | | | | | |
  / / /  / / / / / / / / / /

  W
|-----------------------------||
|----------------------------o||
|-----------------------------||
|-----------------------------||
|----------------------------o||
|-----------------------------||


  D(tyDe 2)      Dsus4aA/D     D                Em7     Cadd9
  E S S +S S S S E S S E S S    E  S S +S S S S E   S S E S S
  | | |  | | | | | | | | | |    |  | |  | | | | |   | | | | |
  / / /  / / / / / / / / / /    /  / /  / / / / /   / / / / /

  W                            +H               S S S S Q
|-2--------------------------|-(2)--------------3-3-3-3-3-----|
|-3--------------------------|-(3)--------------3-3-3-3-3-----|
|-2--------------------------|-(2)--------------0-0-0-0-0-----|
|-0--------------------------|-(0)----------------------------|
|----------------------------|--------------------------------|
|----------------------------|--------------------------------|
|
| Gtr III
| W                             H               S S S S Q
|----------------------------|------------------3-3-3-3-3-----|
|----------------------------|------------------3-3-3-3-3-----|
|----------------------------|------------------0-0-0-0-0-----|
|----------------------------|--------------------------------|
|----------------------------|--------------------------------|
|----------------------------|--------------------------------|


  D              Dsus4aA/D
  E S S +S S S S E S S E S S
  | | |  | | | | | | | | | |
  / / /  / / / / / / / / / /

  W
|-2----------------------------|
|-3----------------------------|
|-2----------------------------|
|-0----------------------------|
|------------------------------|
|------------------------------|
|
| W
|------------------------------|
|------------------------------|
|------------------------------|
|------------------------------|
|------------------------------|
|------------------------------|


  D                D7sus4
   E  S S +S S S S  S  S  S  S  E  S S
   |  | |  | | | |  |  |  |  |  |  | |
   /  / /  / / x x  /  /  /  /  /  x x

  +W
|-(2)----------------------------------|
|-(3)----------------------------------|
|-(2)----------------------------------|
|-(0)----------------------------------|
|--------------------------------------|
|--------------------------------------|
|
|  H                S  S  S  S  Q
|--------------------------------------|
|------------------13-13-13-13-13\-----|
|------------------12-12-12-12-12\-----|
|------------------12-12-12-12-12\-----|
|--------------------------------------|
|--------------------------------------|


 Pre-Chorus
  D             Dsus4aA/D      D             Cadd9
  E S S S S S S E S S  E S S   E S S S S S S E S S E S S
  | | | | | | | | | |  | | |   | | | | | | | | | | | | |
  / / / / / / / / / /  / / /   / / / / / / / / / / / / /

  E S S S S S S E S S  E S S   E S S S S S S E S S E S S
|----------------------------|---------------3-3-3-3-3-3---|
|-3-3-3-3-3-3-3-3-3-3--3-3-3-|-3-3-3-3-3-3-3-3-3-3-3-3-3---|
|-2-2-2-2-2-2-2-2-2-2--2-2-2-|-2-2-2-2-2-2-2-0-0-0-0-0-0---|
|-0-0-0-0-0-0-0-0-0-0--0-0-0-|-0-0-0-0-0-0-0-2-2-2-2-2-2---|
|----------------------------|-----------------------------|
|----------------------------|-----------------------------|
|
| E S S S S S S E S S  E S S   E S S S S S S E S S E S S
|----------------------------|-----------------------------|
|-7-7-7-7-7-7-7-8-x-x-10-x-x-|-7-7-7-7-7-7-7-8-x-x-5-x-x---|
|-7-7-7-7-7-7-7-9-x-x-11-x-x-|-7-7-7-7-7-7-7-9-x-x-5-x-x---|
|----------------------------|-----------------------------|
|----------------------------|-----------------------------|
|----------------------------|-----------------------------|


  D             Dsus4aA/D      D             D7sus4
  E S S S S S S E S S  E S S   E S S S S E     H
  | | | | | | | | | |  | | |   | | | | | |     |
  / / / / / / / / / /  / / /   / / / / / /     /

  E S S S S S S E S S  E S S   E S S S S S S   H
|----------------------------|-----------------------|
|-3-3-3-3-3-3-3-3-3-3--3-3-3-|-3-3-3-3-3-3-3---3-----|
|-2-2-2-2-2-2-2-2-2-2--2-2-2-|-2-2-2-2-2-2-2---0-----|
|-0-0-0-0-0-0-0-0-0-0--0-0-0-|-0-0-0-0-0-0-0---x-----|
|----------------------------|-----------------3-----|
|----------------------------|-----------------------|
|
| E S S S S S S E S S  E S S   E S S S S S S   H
|----------------------------|-----------------------|
|-7-7-7-7-7-7-7-8-x-x-10-x-x-|-7-7-7-7-7-7-7S=13-----|
|-7-7-7-7-7-7-7-9-x-x-11-x-x-|-7-7-7-7-7-7-7S=12-----|
|----------------------------|-----------------------|
|----------------------------|-----------------------|
|----------------------------|-----------------------|
|
|                                Gtr IV
| W                            H               H
|----------------------------|-----------------------|
|----------------------------|-----------------------|
|----------------------------|---------------<12>----|
|----------------------------|-----------------------|
|----------------------------|-----------------------|
|----------------------------|-----------------------|


 Chorus
  $
    W
    E  S  S  S  S  S S   S   S S S  S  S S S
|--------------------------------------------|
|--------15-------15--------15-----15--------|
|---0--0--0--0--0--0-0---0---0-0-0--0--0-0-0-|
|--------------------------------------------|
|--------------------------------------------|
|--------------------------------------------|
|
|  +H                   +H
|--------------------------------------------|
|-(13)-----------------(13)------------------|
|-(12)-----------------(12)------------------|
|--------------------------------------------|
|--------------------------------------------|
|--------------------------------------------|
|
|   Q        Q           Q          Q
|--------------------------------------------|
|--------------------------------------------|
|--------------------------------------------|
|-----------------------<7>------------------|
|-<12>------<7>--------------------<7>-------|
|--------------------------------------------|


   W
   S   S S  S  S  S  S  S  S   S S  S  S   S  S  S
|---------------------------------------------------|
|-13--15---15-------15-15-----15---13-15--15-15-15--|
|--0-----0--0--0--0--0--0--0---0-0--0--0---0--0--0--|
|---------------------------------------------------|
|---------------------------------------------------|
|---------------------------------------------------|
|
|  W
|---------------------------------------------------|
|---------------------------------------------------|
|---------------------------------------------------|
|---------------------------------------------------|
|---------------------------------------------------|
|---------------------------------------------------|
|
|  Q           Q           Q           Q
|---------------------------------------------------|
|---------------------------------------------------|
|---------------------------------------------------|
|-<7>---------------------<3>-----------------------|
|-------------<3>---------------------<3>-----------|
|---------------------------------------------------|


   S   S S  S  S  S  S  S  S   S S  S  S   S  S  S
|--------------------------------------------------|
|-13--15---13-------15-15-----15---13-15--15-15-13-|
|--0-----0--0--0--0--0--0--0---0-0--0--0---0--0--0-|
|--------------------------------------------------|
|--------------------------------------------------|
|--------------------------------------------------|
|
| Gtr IV
|  Q           Q           Q           Q
|--------------------------------------------------|
|--------------------------------------------------|
|-<5>----------------------------------------------|
|-------------------------<7>----------------------|
|-------------<7>---------------------<7>----------|
|--------------------------------------------------|


   E  S  S  S  S  S  S  S   S S S  S   S S S
|---------------------------------------------|
|-------15-------15-15-13--15---------15------|
|--0--0--0--0--0--0--0--0---0-0-0--0---0-0-0--|
|---------------------------------------------|
|---------------------------------------------|
|---------------------------------------------|
|
|  Q        Q           Q          Q
|---------------------------------------------|
|---------------------------------------------|
|---------------------------------------------|
|-<7>------------------<7>--------------------|
|----------<7>--------------------<7>---------|
|---------------------------------------------|


    S   S S  S  S  S  S  S  S   S S  S  S   S  S  S
|---------------------------------------------------|
|--13--15---15-------15-15-----15---13-15--15-15-13-|
|---0-----0--0--0--0--0--0--0---0-0--0--0---0--0--0-|
|---------------------------------------------------|
|---------------------------------------------------|
|---------------------------------------------------|
|
|   Q           Q           Q           Q
|---------------------------------------------------|
|---------------------------------------------------|
|---------------------------------------------------|
|--------------------------<7>----------------------|
|-<12>---------<7>---------------------<7>----------|
|---------------------------------------------------|


   S   S  S  S  S  S  S  S  S   S S S  S   S S S
|------------------------------------------------|
|-13--15-15-15-------15-15-15--15-----15--15-----|
|--0------0--0--0--0--0--0--0---0-0-0--0---0-0-0-|
|------------------------------------------------|
|------------------------------------------------|
|------------------------------------------------|
|
|  Q            Q           Q          Q
|------------------------------------------------|
|------------------------------------------------|
|------------------------------------------------|
|-<7>----------------------<3>-------------------|
|--------------<3>--------------------<3>--------|
|------------------------------------------------|


   S   S  S  S  S  S  S  S  S   S  S  S  S   S  S  S
|----------------------------------------------------|
|-13--15-15-15-------15-15-15--15-13-13-15--15-15-13-|
|--0------0--0--0--0--0--0--0---0--0--0--0---0--0--0-|
|----------------------------------------------------|
|----------------------------------------------------|
|----------------------------------------------------|
|
|  Q            Q           Q            Q
|----------------------------------------------------|
|----------------------------------------------------|
|-<5>------------------------------------------------|
|--------------------------<7>-----------------------|
|--------------<7>----------------------<7>----------|
|----------------------------------------------------|


                                       To Dbl. Coda
   S   S  S  S  S   S  S  S  S   S  S  S  S   S  S  S
|-----------------------------------------------------|
|-13--15-15-15-13--15-15-15-15--15-15-15-15--15-15-15-|
|--0---0--0--0--0---0--0--0--0---0--0--0--0---0--0--0-|
|-----------------------------------------------------|
|-----------------------------------------------------|
|-----------------------------------------------------|
|
|  Q            Q            Q            Q
|-----------------------------------------------------|
|-----------------------------------------------------|
|-----------------------------------------------------|
|-<7>-----------------------<7>-----------------------|
|--------------<7>-----------------------<7>----------|
|-----------------------------------------------------|


    E   S  S  E   E  E   E  E   E    S   S  S  S  E   E  E   E  S   S  S  S
|-----------------------12--------|-15--15-15-15-12-----15--15-15--15-15-15-|
|--13--15-15-15--13-15-----15--13-|------------------13--------13--13-13-13-|
|---0---0--0--0-------------------|-----------------------------0---0--0--0-|
|---------------------------------|-----------------------------------------|
|---------------------------------|-----------------------------------------|
|---------------------------------|-----------------------------------------|
|
|   Q         Q      Q      Q        Q            Q      Q      Q
|---------------------------------|-----------------------------------------|
|---------------------------------|-----------------------------------------|
|---------------------------------|-----------------------------------------|
|-------------------<7>-----------|-<7>-----------------<3>-----------------|
|-<12>-------<7>-----------<7>----|--------------<3>-----------<3>----------|
|---------------------------------|-----------------------------------------|


   E   S  S  E   E  E   E  E   S  S    E   S  S  E   E  E   E  E   E
|-15--15-15-15--15-----12--------15-|--------------------------------|
|-13--15-15-15--13-15-----15--13----|-13--15-15-15--15-15--15-15--15-|
|-----------------------------------|-------------------0---0--0---0-|
|-----------------------------------|--------------------------------|
|-----------------------------------|--------------------------------|
|-----------------------------------|--------------------------------|
|
|  Q         Q      Q      Q           Q         Q      Q      Q
|-----------------------------------|--------------------------------|
|-----------------------------------|--------------------------------|
|-<5>-------------------------------|--------------------------------|
|------------------<7>--------------|-<7>--------------<7>-----------|
|-----------<7>-----------<7>-------|-----------<7>-----------<7>----|
|-----------------------------------|--------------------------------|


    E   S  S  E   E  E   E  E   E
|-----------------------12--------|
|--13--15-15-15--13-15-----15--13-|
|---------------------------------|
|---------------------------------|
|---------------------------------|
|---------------------------------|
|
|   Q         Q      Q      Q
|---------------------------------|
|---------------------------------|
|---------------------------------|
|-------------------<7>-----------|
|-<12>-------<7>-----------<7>----|
|---------------------------------|


   S   S  S  S  E   E  S   S  S  S  E   S  S
|-15--15-15-15-12-----15--15-15-15-15---------|
|-13--13-13-13-13--13-13--13-13-13-13--13-13--|
|---------------------------------------------|
|---------------------------------------------|
|---------------------------------------------|
|---------------------------------------------|
|
|  Q            Q      Q            Q
|---------------------------------------------|
|---------------------------------------------|
|---------------------------------------------|
|-<7>-----------------<3>---------------------|
|--------------<3>-----------------<3>--------|
|---------------------------------------------|


                                               D.C. al Coda
   E   S  S  E   E  E   E  E   E    E  S S  E  E  E  E  E  E
|----------------------12--------|---------------------------||
|-13--15-15-15--13-15-----15--13-|---------------------------||
|--------------------------------|---------------------------||
|--------------------------------|--0--0-0--0--0--0--0--0--0-||
|--------------------------------|---------------------------||
|--------------------------------|---------------------------||
|
|  Q         Q      Q      Q        Q       Q     Q     Q
|--------------------------------|---------------------------||
|--------------------------------|---------------------------||
|-<5>----------------------------|---------------------------||
|------------------<7>-----------|-<7>-----------<7>---------||
|-----------<7>-----------<7>----|---------<7>---------<7>---||
|--------------------------------|---------------------------||


 Guitar Solo
  &
   W           W             W             W
|------------|-------------|-------------|---------------|
|------------|-------------|-------------|---------------|
|------------|-------------|-------------|---------------|
|--0---------|-------------|-------------|---------------|
|------------|-------------|-------------|---------------|
|------------|-------------|-------------|---------------|
|
|                                                  ~~~
|  W           E E H.        E E H.        E E Q  +H
|------------|-------------|-------------|---------------|
|------------|-------------|-------------|---------------|
|------------|-----0-------|-----0-------|-----0--(0)----|
|-<7>--------|---2---------|---2---------|---0-----------|
|------------|-0-----------|-3-----------|---2-----------|
|------------|-------------|-------------|-3-------------|


  Gtr II
                                     ~~~                    ~
              |-3-|
  H       S S S S S +E  E   E E Q   +Q   +E  S S   E E E  E Q  Q
|-------------------------|----------------------|-----------------|
|-----------------------5-|---3s8---(8)--(8)-----|-----------------|
|---------------2-5-(5)---|-5----------------5-7-|-5-4-5--7s9--9\--|
|---------x-x-2-----------|------------------5-7-|-----------------|
|---------x-x-------------|----------------------|-----------------|
|---------x-x-------------|----------------------|-----------------|
|
| Gtr IV
| E E H.                    E E H.                 E E H.
|-------------------------|----------------------|-----------------|
|-------------------------|----------------------|-----------------|
|-----0-------------------|-----0----------------|-----0-----------|
|---4---------------------|---2------------------|---4-------------|
|-5-----------------------|-0--------------------|-5---------------|
|-------------------------|----------------------|-----------------|


                                      ~~~
  Q   S S E E S S E E   Q   E  E E E  Q     Q   E   S  S  S  S  S  S  E  E
|---------------------|-------------------|---------------------------------|
|---------------------|-------------------|--------------------13----13p12--|
|---------------------|-7---5--7----------|--------------12h14----14--------|
|---------5-7-9s7p5-7-|-7---5--7----------|--------12h14--------------------|
|-----5h7-------------|-5---3--5-3-3s10\--|---------------------------------|
|---------------------|-------------------|---------------------------------|
|
| E E H.                E E H.              E E H.
|---------------------|-------------------|---------------------------------|
|---------------------|-------------------|---------------------------------|
|-----0---------------|-----0-------------|-----0---------------------------|
|-----2---------------|---0---------------|---2-----------------------------|
|---0-----------------|---2---------------|-0-------------------------------|
|-1-------------------|-3-----------------|---------------------------------|


   ~~~~~~~~~~~~
   Q    E.  S  Q   S  S  S  S
|-----------------15-12----12-|
|-----------------------15----|
|-14---12--12\----------------|
|-----------------------------|
|-----------------------------|
|-----------------------------|
|
|  E E  H.
|-----------------------------|
|-----------------------------|
|-------0---------------------|
|----4------------------------|
|--5--------------------------|
|-----------------------------|


   ~~
        |--3--|
   Q    S  S  S  E  E  E  E  E    E E E  E  S S  E  E E
|------------------------------|-----------10p8----10-8--|
|-15---13h15-12-12-13s15-15s13-|-13-------------10----8--|
|------------------------------|-------------------------|
|------------------------------|------7-------------7----|
|------------------------------|-------------------------|
|------------------------------|-------------------------|
|
|  E E  H.                        E E H.
|------------------------------|-------------------------|
|------------------------------|-------------------------|
|-------0----------------------|------0------------------|
|-------2----------------------|----0--------------------|
|----0-------------------------|----2--------------------|
|--1---------------------------|--3----------------------|

                         feedback
                    ~~~~~~~~~~~~~~~~~~~~~~~~~
   H         +Q    +Q      +W            +W
|-14b15=====(14)--(14)--|-(14)--------|-(14)---------|
|-----------------------|-------------|--------------|
|-----------------------|-------------|--------------|
|-----------------------|-------------|--------------|
|-----------------------|-------------|--------------|
|-----------------------|-------------|--------------|
|
|  W                       +W            +H     H
|-----------------------|-------------|--------------|
|-----------------------|-------------|--------------|
|--0--------------------|--(0)--------|--(0)---------|
|--2--------------------|--(2)--------|--(2)---------|
|--0--------------------|--(0)--------|--(0)---------|
|-----------------------|-------------|--------------|


                                       Vocal Bridge
    ~~~~~~~~~~~~~~~~~~
   +W            +Q    +Q    H           W
|-(14)--------|-(14)r=(14)------------|---------------------|
|-------------|-----------------------|---------------------|
|-------------|-----------------------|---------------------|
|-------------|-----------------------|---------------------|
|-------------|-----------------------|---------------------|
|-------------|-----------------------|---------------------|
|
|   W             Q     Q    Q    Q      Q    Q    Q    Q
|-------------|-----------------------|---------------------|
|-------------|-----------------------|---------------------|
|-------------|-----------------------|---------------------|
|-------------|-------------<7>-------|-<5>-------<3>-------|
|-------------|-<12>---<7>-------<7>--|------<3>-------<3>--|
|-------------|-----------------------|---------------------|


                          D.S. al Dbl. Coda
   W                     W
|---------------------|---------------------||
|---------------------|---------------------||
|---------------------|---------------------||
|---------------------|---------------------||
|---------------------|---------------------||
|---------------------|---------------------||
|
|  Q    Q    Q    Q      Q    Q    Q    Q
|---------------------|---------------------||
|---------------------|---------------------||
|-<5>-----------------|---------------------||
|-----------<7>-------|-<5>-------<7>-------||
|------<7>-------<7>--|------<7>-------<7>--||
|---------------------|---------------------||


   Outro Pre-Chorus
    &&
    G             Gsus4 Gsus2   G              Gsus4 Gsus2
    Gtr I
    E S S S S S S E S S E S S   E S S +S S S S E S S E S S
    | | | | | | | | | | | | |   | | |  | | | | | | | | | |
    / / / / / / / / / / / / /   / / /  / / / / / / / / / /

    W                           W
||----------------------------|----------------------------|
||o---------------------------|----------------------------|
||----------------------------|----------------------------|
||----------------------------|----------------------------|
||o---------------------------|----------------------------|
||----------------------------|----------------------------|


  G              Gsus4 Gsus2
  E S S +S S S S E S S E S S
  | | |  | | | | | | | | | |
  / / /  / / / / / / / / / /

  W
|-------------------------------||
|------------------------------o||
|-------------------------------||
|-------------------------------||
|------------------------------o||
|-------------------------------||


  G             Gsus4 Gsus2   G             Gsus4 G5
  E S S S S S S E S S E S S   E S S S S S S E S S Q
  | | | | | | | | | | | | |   | | | | | | | | | | |
  / / / / / / / / / / / / /   / / / / / / / / / / /

  W                           W
|---------------------------|------------------------|
|---------------------------|------------------------|
|---------------------------|------------------------|
|---------------------------|------------------------|
|---------------------------|------------------------|
|---------------------------|------------------------|


 Outro Chorus
   +W
    |
    /

  Gtr II
    E  S  S  S  S  S S  S   S S S  S  S S S
|-------------------------------------------|
|--------15-------15-------15-----15--------|
|---0--0--0--0--0--0-0--0---0-0-0--0--0-0-0-|
|-------------------------------------------|
|-------------------------------------------|
|-------------------------------------------|
|
| Gtr IV
|   Q        Q          Q          Q
|-------------------------------------------|
|-------------------------------------------|
|-------------------------------------------|
|----------------------<7>------------------|
|-<12>------<7>-------------------<7>-------|
|-------------------------------------------|


  +H                       H
   |
   /

   S   S S  S  S  S  S  S  S   S S  S  S   S  S  S
|---------------------------------------------------|
|-13--15---15-------15-15-----15---13-15--15-15-15--|
|--0-----0--0--0--0--0--0--0---0-0--0--0---0--0--0--|
|---------------------------------------------------|
|---------------------------------------------------|
|---------------------------------------------------|
|
|  Q           Q           Q           Q
|---------------------------------------------------|
|---------------------------------------------------|
|---------------------------------------------------|
|-<7>---------------------<3>-----------------------|
|-------------<3>---------------------<3>-----------|
|---------------------------------------------------|


   S   S S  S  S  S  S  S  S   S S  S  S   S  S  S
|--------------------------------------------------|
|-13--15---13-------15-15-----15---13-15--15-15-13-|
|--0-----0--0--0--0--0--0--0---0-0--0--0---0--0--0-|
|--------------------------------------------------|
|--------------------------------------------------|
|--------------------------------------------------|
|
|  Q           Q           Q           Q
|--------------------------------------------------|
|--------------------------------------------------|
|-<5>----------------------------------------------|
|-------------------------<7>----------------------|
|-------------<7>---------------------<7>----------|
|--------------------------------------------------|


   E  S  S  S  S  S  S  S   S S S  S   S S S
|---------------------------------------------|
|-------15-------15-15-13--15---------15------|
|--0--0--0--0--0--0--0--0---0-0-0--0---0-0-0--|
|---------------------------------------------|
|---------------------------------------------|
|---------------------------------------------|
|
|  Q        Q           Q          Q
|---------------------------------------------|
|---------------------------------------------|
|---------------------------------------------|
|-<7>------------------<7>--------------------|
|----------<7>--------------------<7>---------|
|---------------------------------------------|


    S   S S  S  S  S  S  S  S   S S  S  S   S  S  S
|---------------------------------------------------|
|--13--15---15-------15-15-----15---13-15--15-15-13-|
|---0-----0--0--0--0--0--0--0---0-0--0--0---0--0--0-|
|---------------------------------------------------|
|---------------------------------------------------|
|---------------------------------------------------|
|
|   Q           Q           Q           Q
|---------------------------------------------------|
|---------------------------------------------------|
|---------------------------------------------------|
|--------------------------<7>----------------------|
|-<12>---------<7>---------------------<7>----------|
|---------------------------------------------------|


   S   S  S  S  S  S  S  S  S   S S S  S   S S S
|------------------------------------------------|
|-13--15-15-15-------15-15-15--15-----15--15-----|

|--0------0--0--0--0--0--0--0---0-0-0--0---0-0-0-|
|------------------------------------------------|
|------------------------------------------------|
|------------------------------------------------|
|
|  Q            Q           Q          Q
|------------------------------------------------|
|------------------------------------------------|
|------------------------------------------------|
|-<7>----------------------<3>-------------------|
|--------------<3>--------------------<3>--------|
|------------------------------------------------|


   S   S  S  S  S  S  S  S  S   S  S  S  S   S  S  S
|----------------------------------------------------|
|-13--15-15-15-------15-15-15--15-13-13-15--15-15-13-|
|--0------0--0--0--0--0--0--0---0--0--0--0---0--0--0-|
|----------------------------------------------------|
|----------------------------------------------------|
|----------------------------------------------------|
|
|  Q            Q           Q            Q
|----------------------------------------------------|
|----------------------------------------------------|
|-<5>------------------------------------------------|
|--------------------------<7>-----------------------|
|--------------<7>----------------------<7>----------|
|----------------------------------------------------|


   S   S  S  S  S   S  S  S  S   S  S  S  S   S  S  S
|-----------------------------------------------------|
|-13--15-15-15-13--15-15-15-15--15-15-15-15--15-15-15-|
|--0---0--0--0--0---0--0--0--0---0--0--0--0---0--0--0-|
|-----------------------------------------------------|
|-----------------------------------------------------|
|-----------------------------------------------------|
|
|  Q            Q            Q            Q
|-----------------------------------------------------|
|-----------------------------------------------------|
|-----------------------------------------------------|
|-<7>-----------------------<7>-----------------------|
|--------------<7>-----------------------<7>----------|
|-----------------------------------------------------|


    E   S  S  E   E  E   E  E   E    S   S  S  S  E   E  E   E  S   S  S  S
|-----------------------12--------|-15--15-15-15-12-----15--15-15--15-15-15-|
|--13--15-15-15--13-15-----15--13-|------------------13--------13--13-13-13-|
|---0---0--0--0-------------------|-----------------------------0---0--0--0-|
|---------------------------------|-----------------------------------------|
|---------------------------------|-----------------------------------------|
|---------------------------------|-----------------------------------------|
|
|   Q         Q      Q      Q        Q            Q      Q      Q
|---------------------------------|-----------------------------------------|
|---------------------------------|-----------------------------------------|
|---------------------------------|-----------------------------------------|
|-------------------<7>-----------|-<7>-----------------<3>-----------------|
|-<12>-------<7>-----------<7>----|--------------<3>-----------<3>----------|
|---------------------------------|-----------------------------------------|


   E   S  S  E   E  E   E  E   S  S    E   S  S  E   E  E   E  E   E
|-15--15-15-15--15-----12--------15-|--------------------------------|
|-13--15-15-15--13-15-----15--13----|-13--15-15-15--15-15--15-15--15-|
|-----------------------------------|-------------------0---0--0---0-|
|-----------------------------------|--------------------------------|
|-----------------------------------|--------------------------------|
|-----------------------------------|--------------------------------|
|
|  Q         Q      Q      Q           Q         Q      Q      Q
|-----------------------------------|--------------------------------|
|-----------------------------------|--------------------------------|
|-<5>-------------------------------|--------------------------------|
|------------------<7>--------------|-<7>--------------<7>-----------|
|-----------<7>-----------<7>-------|-----------<7>-----------<7>----|
|-----------------------------------|--------------------------------|


    E   S  S  E   E  E   E  E   E
|-----------------------12--------|
|--13--15-15-15--13-15-----15--13-|
|---------------------------------|
|---------------------------------|
|---------------------------------|
|---------------------------------|
|
|   Q         Q      Q      Q
|---------------------------------|
|---------------------------------|
|---------------------------------|
|-------------------<7>-----------|
|-<12>-------<7>-----------<7>----|
|---------------------------------|


   S   S  S  S  E   E  S   S  S  S  E   S  S
|-15--15-15-15-12-----15--15-15-15-15---------|
|-13--13-13-13-13--13-13--13-13-13-13--13-13--|
|---------------------------------------------|
|---------------------------------------------|
|---------------------------------------------|
|---------------------------------------------|
|
|  Q            Q      Q            Q
|---------------------------------------------|
|---------------------------------------------|
|---------------------------------------------|
|-<7>-----------------<3>---------------------|
|--------------<3>-----------------<3>--------|
|---------------------------------------------|


   E   S  S  E   E  E   E  E   E    E  S S  E  E  E  E  E   E
|----------------------12--------|----------------------------|
|-13--15-15-15--13-15-----15--13-|---------------------15--15-|
|--------------------------------|----------------------------|
|--------------------------------|--0--0-0--0--0--0--0--------|
|--------------------------------|----------------------------|
|--------------------------------|----------------------------|
|
|  Q         Q      Q      Q        Q       Q     Q     Q
|--------------------------------|----------------------------|
|--------------------------------|----------------------------|
|-<5>----------------------------|----------------------------|
|------------------<7>-----------|-<7>-----------<7>----------|
|-----------<7>-----------<7>----|---------<7>---------<7>----|
|--------------------------------|----------------------------|


    E   S  S  E   E  E   E  E   E    Q    E   E  S   S  S  S  E   E
|-----------------------12--------|-15---12-----15--15-15-15-15-----|
|--13--15-15-15--13-15-----15--13-|-13---13--13-13--13-13-13-13--13-|
|---------------------------------|---------------------------------|
|---------------------------------|---------------------------------|
|---------------------------------|---------------------------------|
|---------------------------------|---------------------------------|
|
|   Q         Q      Q      Q        Q    Q      Q            Q
|---------------------------------|---------------------------------|
|---------------------------------|---------------------------------|
|---------------------------------|---------------------------------|
|-------------------<7>-----------|-<7>---------<3>-----------------|
|-<12>-------<7>-----------<7>----|------<3>-----------------<3>----|
|---------------------------------|---------------------------------|


   E   S  S  E   E  E   S  S  +E   S  S    E   E  E   E  Q    Q
|--------12---------------12-(12)-12----|--------12---------------|
|-13--15----15--13-13--15------------13-|-13--15-----15-13--------|
|---------------------------------------|-------------------------|
|---------------------------------------|-------------------------|
|---------------------------------------|-------------------------|
|---------------------------------------|-------------------------|
|
|  Q         Q      Q          Q           Q      Q      Q    Q
|---------------------------------------|-------------------------|
|---------------------------------------|-------------------------|
|-<5>-----------------------------------|-------------------------|
|------------------<7>------------------|-<7>-----------<7>-------|
|-----------<7>---------------<7>-------|--------<7>---------<7>--|
|---------------------------------------|-------------------------|


    W             +H      +H         +W
|-------------|------------------|-----------*|
|--15---------|--(15)------------|-----------*|
|---0---------|---(0)-----(0)----|---(0)-----*|
|---0---------|---(0)-----(0)----|---(0)-----*|
|---0---------|---(0)-----(0)----|---(0)-----*|
|-------------|------------------|-----------*|
|
|   W             +W                 +W
|-------------|------------------|-----------*|
|-------------|------------------|-----------*|
|-------------|------------------|-----------*|
|-<12>--------|-(<12>)-----------|-(<12>)----*|
|-------------|------------------|-----------*|
|-------------|------------------|-----------*|


Duration Legend
---------------
W - whole; H - half; Q - quarter; E - 8th; S - 16th; T - 32nd; X - 64th; a - acciaccatura
+ - note tied to previous; . - note dotted; .. - note double dotted
Uncapitalized letters represent notes that are staccato (1/2 duration)
Irregular groupings are notated above the duration line
Duration letters will always appear directly above the note/fret number it represents the
duration for.  Duration letters with no fret number below them represent rests.  Multi-
bar rests are notated in the form Wxn, where n is the number of bars to rest for.  Low
melody durations appear below the staff

Tablature Legend
----------------
 h   - hammer-on
 p   - pull-off
 b   - bend
 pb  - pre-bend
 r   - bend release (if no number after the r, then release immediately)
 /\  - slide into or out of (from/to "nowhere")
 s   - legato slide
 S   - shift slide
  - natural harmonic
[n]  - artificial harmonic
n(n) - tapped harmonic
 ~   - vibrato
 tr  - trill
 T   - tap
 TP  - trem. picking
 PM  - palm muting
\n/  - tremolo bar dip; n = amount to dip
 \n  - tremolo bar down
 n/  - tremolo bar up
/n\  - tremolo bar inverted dip
 =   - hold bend; also acts as connecting device for hammers/pulls
 <>  - volume swell (louder/softer)
 x   - on rhythm slash represents muted slash
 o   - on rhythm slash represents single note slash

Misc Legend
-----------
 |  - bar
||  - double bar
||o - repeat start
o|| - repeat end
*|  - double bar (ending)
 :  - bar (freetime)
 $  - Segno
 &  - Coda
Tempo markers -  = BPM(8/16=s8/s16), where s8 = swing 8ths, s16 = swing 16ths


***************************************************************************************
* Generated using Power Tab Editor by Brad Larsen - http://powertab.guitarnetwork.org *
***************************************************************************************
  development and support by
dmitry ivanov