rock
 
|tablatures   |lyrics   |discussion forums   |more tabs @ XGuitar.com

Rush tabs

Time Stand Still bass tab

Rush: Time Stand Still
>From the album Hold Your Fire (Mercury Records)
Copyright 1987 Core Music Publishing
Music by Lee and Lifeson
Lyrics by Peart

Comments/corrections to Sean Jones 

Transcribed by Erik Habbinga and Sean Jones


    w+q q q   w q q q   w q q q     e e e e e e e e   e e e e e e e e
+-----------+---------+---------+-------------------+-----------------+
|7:-R-------|---R-----|---R-----|4:-----------------|-----------------|
|4:-----0-0-|-2/--0-0-|-2/--0-0-|4:-4-4-4-4-4-4-4-4-|-4-4-4-4-4-4-4---|
+-----------+---------+---------+-------------------+---------------4-+


  e e e e e e e e   e e e e e e e e   e e e e e e e e   e e e e e e e e
+-----------------+-----------------+-----------------+-----------------+
|-----------------|-----------------|-----------------|-----------------|
|-----------------|-----------------|-----7-------7---|---------0-2-4---|
+-5-5-5-5-5-5-5-5-+-5-5-5-5-5-4-5-4-+-0-0---0-0-0---0-+-0-0-2-4-------4-+


  e e e e e e e e   e e e e e e e e   Q q e e e   q s s q e e e
+-----------------+-----------------+-----------+---------------+
|-----------------|-----------------|---7---7---|---------------|
|-----------------|-7-6---7-6---6---|-0---7---7-|-------------3/|
+-7-7-7-7-7-7-7-7-+-----7-----7---7-+-----------+-7-7-7-7-5-7---+

  e e e e e e e e
+-----------------+
|-----------------|
|-4-4-4-4-4-4-4-4-|
+-----------------+


  e e e e e e e e   e e e e e e e e   e e e e e e e e   e e e e e e e e
+-----------------+-----------------+-----------------+-----------------+
|-----------------|-----------------|-----------------|-----------------|
|-4-4-4-4-4-4-4---|-----------------|-----------------|-----7-------7---|
+---------------4-+-5-5-5-5-5-5-5-5-+-5-5-5-5-5-4-5-4-+-0-0---0-0-0---0-+


  e e e e e e e e   e e e e e e e e   e e e q e e e   Q q s s e e
+-----------------+-----------------+---------------+-------------+
|-----------------|-----------------|---------------|---7-----7---|
|---------0-2-4---|-----------------|-7-6---9-7-6---|-0---7-7---7-|
+-0-0-2-4-------4-+-7-7-7-7-7-7-7-7-+-----7-------9-+-------------+

                <*
  e e e q e e e   w   e+h e  e  e   +e+h  e e  e   +e  q  e+h  +e+h  e  e e
+---------------+---+-----9-11-13-+------11-9-11-+---/13-11---+-----13-11---+
|---------------|---|-------------|--------------|------------|-----------9-|
|---9-7-9-7-6-9/|-0-|-------------|-4------------|--2---------|-0-----------|
+-7-------------+---+-0-----------+--------------+------------+-------------+


 +e+h e  e  e   +e+h  e e  e    e  e  e  e  q e e     e+h  e  e e
+-----9-11-13-+------11-9-11-+-11-11-11-13-11-9----+-16---13-11---+
|-------------|--------------|------------------11-|------------9-|
|-------------|-4------------|-2-------------------|-0------------|
+-0-----------+--------------+---------------------+--------------+


 +e+h e  e  e
+-----9-11-13-+
|-------------|
|-------------|
+-0-----------+

                         *>
  +e+h  e e  e    e  e  H     w+q q q   w+q q q     e e e s s e e e e
+------11-9-11-+-11-13-11-+-----------+---------+---------------------+
|--------------|----------|7:---------|---------|4:-2-2-2-2-2-2-2-2---|
|-4------------|-2--------|4:-2/--0-4-|-2/--0-0-|4:-----------------2-|
+--------------+----------+-----------+---------+---------------------+


  e e e e e e e e   e e e e e e e e   e e e q e e e   e e e q e e e
+-----------------+-----------------+---------------+---------------+
|-----------------|-----------------|---------------|---------------|
|-4-4-4-4-4-4-4-4-|-2-2-2-2-2-2-2-2-|-2-2-2-2-4-2-4-|---------------|
+-----------------+-----------------+---------------+-5-5-5-5-5-5-5-+


  e e e e e e e e   q e e e e e s s   e e e q e s s s s   Q q s s e e
+-----------------+-----------------+-------------------+-------------+
|-----------------|-------------2-2-|-2-4-6-4-2-2-4-2---|-------------|
|-----------------|-----------------|-----------------4-|-5-5-5-4-5-4-|
+-2-2-2-2-2-2-2-2-+-0-0-0-0-0-0-----+-------------------+-------------+


  Q q e s s e   e e e q e e e   e e e q e e e   w   e+h e q     w+q q q
+-------------+---------------+---------------+---+---------+-----------+
|-------------|---------------|---------------|---|---------|7:---------|
|-----2-4-2---|---7---7-9-7---|---7---7-9-7---|-5-|-0---0-0-|4:-2/--0-0-|
+-5-5-------5-+-0---7-------9-+-0---7-------9-+---+---------+-----------+


  w+q q q     e e e q e e e   e e e e e e e e   e e e e e e e e
+---------+-----------------+-----------------+-----------------+
|---------|4:---------------|-----------------|-----------------|
|-2/--0-0-|4:-4-4-4-4-4-4-4-|-4-4-4-4-4-2-4-2-|-----------------|
+---------+-----------------+-----------------+-5-5-5-5-5-5-5-5-+


  e e e e e e e e   e e e e e e e e   e e e e e e e e   q e e e e e e
+-----------------+-----------------+-----------------+---------------+
|-----------------|-----------------|-----------------|---------------|
|-----------------|-----7-------7---|---------0-2-4---|---------------|
+-5-5-5-5-5-4-5-4-+-0-0---0-0-0---0-+-0-0-2-4-------4-+-7-7-7-7-7-7-7-+


  e e e e e e e e   e e e e e e e e   e e e e e e e e   e q e e e e e
+-----------------+-----------------+-----------------+---------------+
|-----------------|-----R-----------|-----R-----------|---------------|
|-7-6---7-6---6---|-4-4---4-4-2-2-2-|-4-4---4-4-2-2-4-|---------------|
+-----7-----7---7-+-----------------+-----------------+-5-5-5-5-4-4-4-+


  e q e e e e e   e e e e e e e e   e e e e e e e e   e q e e e e e
+---------------+-----------------+-----------------+---------------+
|---------------|-----------------|-----------------|---------------|
|---------------|-----7-------7---|---------0-2-4---|---------------|
+-5-5-5-5-4-4-4-+-0-0---0-0-0---0-+-0-0-2-4-------4-+-7-7-7-7-7-7-7-+

                                                    <*
  e e e s s e e e e   Q q e e e   e e e s s e e e e   h+Q e   +e+h e  e  e
+-------------------+-----------+-------------------+-------+------9-11-13-+
|-------------6-----|---7---7---|-------------------|-------|--------------|
|-7-6---7-7-6---9-7-|-0---7---7-|---9---9-9-9-7-6---|-0-----|--------------|
+-----7-------------+-----------+-7---7-----------9-+-----0-+--------------+


  +e+h  e e  e   +q  e  e  q e e     e+h  e  e e  +e+h e  e  e   +e+h  e e  e
+------11-9-11-+----11-13-11-9----+-16---13-11---+-----9-11-13-+------11-9-11-+
|--------------|---------------11-|------------9-|-------------|--------------|
|-4------------|--2---------------|-0------------|-------------|--4-----------|
+--------------+------------------+--------------+-0-----------+--------------+

       *>
   H q      w+q q q     e s s e e e e e e   e e q e e e e   e e e e e e e e
+-11----+-----------+---------------------+---------------+-----------------+
|-------|7:---------|4:-2-2-2-2-2-2-2-2---|-------R-------|-----------------|
|-2--11-|4:-2---0-0-|4:-----------------2-|-4-4-4---4-4-4-|-2-2-2-2-2-2-2-2-|
+-------+-----------+---------------------+---------------+-----------------+


  e e e q e e e   e e e e e e e e   e e e e e e e e   e e e e s E  e  e
+---------------+-----------------+-----------------+-----------9-11-13-+
|---------------|-----------------|-----------------|---------R---------|
|-2-4-6-4-2-4-2-|-----------------|-----------------|-------------------|
+---------------+-5-5-5-5-5-5-5-5-+-2-2-2-2-2-2-2-2-+-0-0-0-0-----------+


   e e s s s  s s  s s s  s  s  s  s   e q e e e e e   q e e e e e e
+-11-9-8-9-8-------------------------+---------------+---------------+
|------------11-9-11-9---------------|---------------|---------------|
|----------------------12-11-12-11-9-|-7-7-7-7-7-7---|-4-4-4-4-4-4-4-|
+------------------------------------+-------------7-+---------------+


  Q e e e e e
+-------------+
|-------------|
|-2-2-2-2-2-2-|
+-------------+


  e e e q e e s s   e e e e e e e e   e e e e e e e e   e e e s s e e e s s
+-----------------+-----------------+-----------------+---------------------+
|-----------------|-----------------|-----------------|---------------------|
|-2-4/6-4-2-2-4-2-|---------------7-|-9-9-9-9-9-9-9---|-7-7-7-7-7-7-7-7-7-7-|
+-----------------+-5-5-5-5-5-5-5---+---------------9-+---------------------+


  e s e s e  s  e s e e   Q q s s e e   Q q e s s e   e e e q e e e
+-----------------------+-------------+-------------+---------------+
|-----------------------|-------------|-------------|---------------|
|-7-7-9-9-11-11-9-9-7-9-|-5-5-5-4-5-4-|-----2-4-2---|---7---7-9-7---|
+-----------------------+-------------+-5-5-------5-+-0---0-------9-+


  e e e q e s E   w   e+h e q     w+q q q   w+q q q
+---------------+---+---------+-----------+---------+
|---------------|---|---------|7:---------|---------|
|---7---7-9-7---|-5-|-0---0-0-|4:-2---0-4-|-2---0-0-|
+-0---7-------9-+---+---------+-----------+---------+


  e e e e e e e e e e e e e e   e e e e e e e e e e e e e e
+-----------------------------+-----------------------------+
|-----------------------------|-----------------------------|
|-4-4-4-4-4-4-4-4-4-4-4-2-4-2-|---------------------------7-|
+-----------------------------+-5-5-5-5-5-5-5-5-5-4-5-4-5---+


  e e e e e e e e e e e e e e   e e e e e e e e e e e e e e
+-----------------------------+-----------------------------+
|-----------------------------|-----------------------------|
|-4-4-4-4-4-4-4-4-4-4-4-2-4-2-|---------------------------4-|
+-----------------------------+-5-5-5-5-5-5-5-5-5-5-5-4-5---+


  e e e e e e e e e e e e e e   e e e e e e e e e e e e e e
+-----------------------------+-----------------------------+
|-----------------------------|-------------------4-4---4---|
|-------------------------2-4-|-2-2-2-2-2-2-2-2-2-----2---2-|
+-0-0-0-0-0-0-0-0-0-0-2-4-----+-----------------------------+


  e e e e e e e e e e e e e e   e e e e e q q e e e e e
+-----------------------------+-------------------------+
|-----------------------------|-------------------------|
|-4-4-4-4-4-4-4-4-4-2-4-2-4-2-|-------------------------|
+-----------------------------+-5-5-5-5-5-5-5-5-5-4-5-4-+


  e e e e e e e e e e e e e e   e e e e e s s e e e e e e e e
+-----------------------------+-------------------------------+
|-----------------------------|-------------------------------|
|-----------7---7-------------|-2-2-2-2-2-2-2-2-2-2-2-2-4-2-4-|
+-0-0-0-0-0---0---0-0-0-2-4-5-+-------------------------------+

                                      <*
    e e e q s s e s s   e e e q e e e   h+Q e   +e+h e  e  e   +e+h  e e  e
+---------------------+---------------+-------+------9-11-13-+------11-9-11-+
|4:---7---7-----7-----|---------------|-------|--------------|--------------|
|4:-0---0---7-7---7-7-|---9---9-------|-0-----|--------------|--4-----------|
+---------------------+-7---7---7-7-7-+-----0-+--------------+--------------+

                                                                              *>
  +e  e  e  e  q e e     e+h  e  e e   h e e  e  e   +e+h  e e  e    q  e  e+h
+----11-11-13-11-9----+-16---13-11---+-----9-11-13-+------11-9-11-+-11-13-11---+
|------------------11-|------------9-|---R---------|--------------|------------|
|--2------------------|-0------------|-------------|--4-----------|--2---------|
+---------------------+--------------+-0-----------+--------------+------------+


    e e e e e e e e e e e e e e   e e e e e e e e e e e e e e
+-------------------------------+-----------------------------+
|7:-----------------------------|-----------------------------|
|4:-----------------------------|-----------------------------|
+---2-2-2-2-2-2-2-2-2-2-2-2-2-2-+-4-4-4-4-4-4-4-4-4-4-4-4-4-4-+


  e e e q e e e e e e e e e   e e e e e e e e H     e e e e e e e e   q q q q
+---------------------------+-------------------+-------------------+---------+
|---------------------------|-------------------|4:-2-2-2-2-2-2-2-2-|---------|
|---------------------------|-2-2-2-2-2-2-2-2-2-|4:-----------------|-4-4-4-4-|
+-5-5-5-5-5-5-5-5-5-5-5-5-5-+-------------------+-------------------+---------+


  e e e e e e e e   e e e q e e e   e e e e e e e e   e e e e e e e e
+-----------------+---------------+-----------------+-----------------+
|-----------------|---------------|-----------------|-----------------|
|-2-2-2-2-2-2-2-2-|-2-4-6-4-2-2-4-|-----------------|-----------------|
+-----------------+---------------+-5-5-5-5-5-5-5-5-+-2-2-2-2-2-2-2-2-+


  q e s s e e e e   e e e s s e e e e   q e e e e e e   q e e e e e e
+-----------------+-------------------+---------------+---------------+
|-----------------|-------------------|---------------|---------------|
|-----7-7-7-9-7---|-7---7-7-7-7-9-7-9-|-7-7-7-7-7-7-7-|-4-4-4-4-4-4-4-|
+-0-0-----------9-+---0---------------+---------------+---------------+


  e q e e e e s s   e e e s s e e s s s s   q e e e e e e   q e e e e e e
+-----------------+-4-6---6-8-6-4-4-6-4---+---------------+---------------+
|-----------------|-----R---------------7-|---------------|-4-4-4-4-4-4-4-|
|-2-2-2-2-2-2-2-2-|-----------------------|---------------|---------------|
+-----------------+-----------------------+-5-5-5-5-5-5-5-+---------------+


  e e e e e e e e    q^q^ q^ q^q^ q^  Q q e e e   Q q e e e
+-----------------+-11-9-11---------+-----------+-----------+
|-----------------|---------11-9-11-|-----------|-----------|
|-7-7-7-7-7-7-7-7-|-----------------|-5-5-4-5-4-|-----2-4-2-|
+-----------------+-----------------+-----------+-5-5-------+


  e e e q e s s s s
+-------------------+
|-------------------|
|---7---7-9-7-9-7---|
+-0---0-----------9-+


  e e e e s s s s e e   Q q s s e e   e s s e q e e e   e s s e q e e e
+---------------------+-------------+-----------------+-----------6-----+
|---------6-7-6-------|-------------|-----------------|-------------9-7-|
|---7---9-------9-7-9-|-5-5-4-4-5-4-|-----------2-4-2-|---7-7---7-------|
+-0---0---------------+-------------+-5-5-5-5-5-------+-0-----0---------+


  s s s s e s s e e e e   w   w     w+q q q     w   +w   +w
+-----------------------+---+---+-----------+-----+----+----+
|-6-7-6-----4-5-4-------|---|---|7:---------|4:---|----|----|
|-------9-7-------7-5-7-|-5-|-0-|4:-2---0-4-|4:-2-|----|----|
+-----------------------+---+---|-----------+-----+----+----+


Note: Measures between the <* *> markings have a synth bass part below the
actual bass part. The lower notes should be played with pedals, and the
higher notes (on the top two lines) whould be played on the bass.

==========================================================================

                Created using the Bass Tab Creator
     __         by Mario D'Alessio (motcid!marble!dalessio)
   +|oo|+
   +|oo|+       Notes:  w = Whole  h = Half  q = Quarter
     ||                 e = 8th    s = 16th  t = 32nd  x = 64th
     ||
     ||                 Capital durations are dotted notes
     ||                   (equal to 1.5 times the duration value)
     ||
     ||             #
     ||         +----+                   +----+
  _  ||  _      |*--*+  = MEASURE        |4:--|  = TIME
  \\_||_//      |*--*+    REPEATS        |4:--|    SIGNATURES
   | [] |       +----+   (#=Num Repeats) +----+
   | || |
  /  []  \      + = TIE         ^  = TRIPLET           > = BEND
  \______/      H = HAMMER ON   \  = SLIDE TO FRET     R = Rest
                P = PULL OFF    \X = SLIDE TO NOWHERE  ~ = Trill

==========================================================================
  development and support by
dmitry ivanov