rock
 
|tablatures   |lyrics   |discussion forums   |more tabs @ XGuitar.com

Rush tabs

Time and Motion guitar tab

Rush: Time And Motion
From the album Test For Echo (Atlantic Records)
Copyright 1996 Core Music Publishing
Music by Lee and Lifeson
Lyrics by Peart

Comments/corrections to Augusto Raffaelli 

Tablature by Augusto Raffaelli, Kenn Chipkin, Matt Scharfglass and Marc Newman


   10/8 Timing
E|---------------------|---------------------|---------------------|
B|---------------------|---------------------|---------------------|
G|---------------------|---------------------|---------------------|
D|---------------------|---------------------|---------------------|
A|-2---2-2---2-2---2---|-2---2-2---2-2---2---|-2---2-2---2-2---2-2-|
E|-0---0-0---0-0---0---|-0---0-0---0-0---0---|-0---0-0---0-0---0-0-|

   12/8 Timing               10/8 Timing
E|-------------------------|---------------------|
B|-------------------------|---------------------|
G|-------------------------|---------------------|
D|-------4-----------------|-------4-------------|
A|-6-----------------4-----|-6---------------4---|
E|-------------6-----------|-------------6-------|

   12/8 Timing               10/8 Timing
E|-------------------------|---------------------|
B|-------------------------|---------------------|
G|-------------------------|---------------------|
D|-------4-----------------|-----4---------------|
A|-6-----------------4-----|-6-------------4-----|
E|-------------6-----------|---------6-----------|

   12/8 Timing               10/8 Timing
E|-------------------------|---------------------|
B|-------------------------|---------------------|
G|-------------------------|---------------------|
D|-------4-----------------|-------4-------------|
A|-6-----------------4-----|-6---------------4h6-|
E|-------------6-----------|-------------6-------|

   12/8 Timing
E|-------------------------|-------------------------|
B|-------------------------|-------------------------|
G|-----0-----0-----0-------|-----0-----0-----0-------|
D|---3-----3-----3---3-----|---3-----3-----3---3-----|
A|-5-----4-----5-------4---|-5-----4-----5-------4---|
E|-------------------------|-------------------------|

E|-------------------------|-------------------------|
B|-------------------------|-------------------------|
G|-----0-----0-----0-------|-----0-----0-----0-------|
D|---3-----3-----3---3-----|---3-----3-----3---3-----|
A|-5-----4-----5-------4---|-5-----4-----5-------4---|
E|-------------------------|-------------------------|

E|-------------------------|-------------------------|
B|-------------------------|-------------------------|
G|-----0-----0-----0-------|-----0-----0-----0-------|
D|---6-----6-----6---6-----|---6-----6-----6---6-----|
A|-8-----7-----8-------7---|-8-----7-----8-------7---|
E|-------------------------|-------------------------|

E|-------------------------|-------------------------|
B|-------------------------|-------------------------|
G|-----0-----0-----0-------|-----0-----0-----0-------|
D|---3-----3-----3---3-----|---3-----3-----3---3-----|
A|-5-----4-----5-------4---|-5-----4-----5-------4---|
E|-------------------------|-------------------------|

E|-------------------------|-------------------------|
B|-------------------------|-------------------------|
G|-----0-----0-----0-------|-----0-----0-----0-------|
D|---3-----3-----3---3-----|---3-----3-----3---3-----|
A|-5-----4-----5-------4---|-5-----4-----5-------4---|
E|-------------------------|-------------------------|

E|-------------------------|-------------------------|
B|-------------------------|-------------------------|
G|-----0-----0-----0-------|-----0-----0-----0-------|
D|---3-----3-----3---3-----|---3-----3-----3---3-----|
A|-5-----4-----5-------4---|-5-----4-----5-------4---|
E|-------------------------|-------------------------|

E|-------------------------|-------------------------|
B|-------------------------|-------------------------|
G|-----0-----0-----0-------|-----0-----0-----0-------|
D|---6-----6-----6---6-----|---6-----6-----6---6-----|
A|-8-----7-----8-------7---|-8-----7-----8-------7---|
E|-------------------------|-------------------------|

E|-------------------------|-------------------------|
B|-------------------------|-------------------------|
G|-----0-----0-----0-------|-----0-----0-----0-------|
D|---6-----6-----6---6-----|---6-----6-----6---6-----|
A|-8-----7-----8-------7---|-8-----7-----8-------7---|
E|-------------------------|-------------------------|

E|-------------------------|-------------------------|
B|-------------------------|-------------------------|
G|-------------------------|-------------------------|
D|-------------------------|-------------------------|
A|-5-----5---3-5---3---5---|-3-----3---3-5---3---5---|
E|-3-----3---1-3---1---3---|-1-----1---1-3---1---3---|

E|-------------------------|-------------------------|
B|-------------------------|-------------------------|
G|-----0-----0-----0-------|-----0-----0-----0-------|
D|---3-----3-----3---3-----|---3-----3-----3---3-----|
A|-5-----4-----5-------4---|-5-----4-----5-------4---|
E|-------------------------|-------------------------|

E|-------------------------|-------------------------|
B|-8-----8---6-8---6---8---|-6-----6---6-8---6---8---|
G|-7-----7---5-7---5---7---|-5-----5---5-7---5---7---|
D|-5-----5---3-5---3---5---|-3-----3---3-5---3---5---|
A|-------------------------|-------------------------|
E|-------------------------|-------------------------|

E|-------------------------|-------------------------|
B|-------------------------|-------------------------|
G|-----0-----0-----0-------|-----0-----0-----0-------|
D|---3-----3-----3---3-----|---3-----3-----3---3-----|
A|-5-----4-----5-------4---|-5-----4-----5-------4---|
E|-------------------------|-------------------------|

E|-------------------------|-------------------------|
B|-------------------------|-------------------------|
G|-----0-----0-----0-------|-----0-----0-----0-------|
D|---3-----3-----3---3-----|---3-----3-----3---3-----|
A|-5-----4-----5-------4---|-5-----4-----5-------4---|
E|-------------------------|-------------------------|

E|-------------------------|-------------------------|
B|-------------------------|-------------------------|
G|-----0-----0-----0-------|-----0-----0-----0-------|
D|---3-----3-----3---3-----|---3-----3-----3---3-----|
A|-5-----4-----5-------4---|-5-----4-----5-------4---|
E|-------------------------|-------------------------|

E|-------------------------|-------------------------|
B|-------------------------|-------------------------|
G|-----0-----0-----0-------|-----0-----0-----0-------|
D|---6-----6-----6---6-----|---6-----6-----6---6-----|
A|-8-----7-----8-------7---|-8-----7-----8-------7---|
E|-------------------------|-------------------------|

E|-------------------------|-------------------------|
B|-------------------------|-------------------------|
G|-----0-----0-----0-------|-----0-----0-----0-------|
D|---6-----6-----6---6-----|---6-----6-----6---6-----|
A|-8-----7-----8-------7---|-8-----7-----8-------7---|
E|-------------------------|-------------------------|

E|-------------------------|-------------------------|
B|-------------------------|-------------------------|
G|-------------------------|-------------------------|
D|-------------------------|-------------------------|
A|-5-----5---3-5---3---5---|-3-----3---3-5---3---5---|
E|-3-----3---1-3---1---3---|-1-----1---1-3---1---3---|

E|-------------------------|-------------------------|
B|-------------------------|-------------------------|
G|-----0-----0-----0-------|-----0-----0-----0-------|
D|---3-----3-----3---3-----|---3-----3-----3---3-----|
A|-5-----4-----5-------4---|-5-----4-----5-------4---|
E|-------------------------|-------------------------|

E|-------------------------|-------------------------|
B|-8-----8---6-8---6---8---|-6-----6---6-8---6---8---|
G|-7-----7---5-7---5---7---|-5-----5---5-7---5---7---|
D|-5-----5---3-5---3---5---|-3-----3---3-5---3---5---|
A|-------------------------|-------------------------|
E|-------------------------|-------------------------|

E|-------------------------|-------------------------|
B|-------------------------|-------------------------|
G|-----0-----0-----0-------|-----0-----0-----0-------|
D|---3-----3-----3---3-----|---3-----3-----3---3-----|
A|-5-----4-----5-------4---|-5-----4-----5-------4---|
E|-------------------------|-------------------------|

                             10/8 Timing
E|-------------------------|---------------------|
B|-------------------------|---------------------|
G|-------------------------|---------------------|
D|-------4-----------------|-------4-------------|
A|-6-----------------4-----|-6---------------4---|
E|-------------6-----------|-------------6-------|

   12/8 Timing               10/8 Timing
E|-------------------------|---------------------|
B|-------------------------|---------------------|
G|-------------------------|---------------------|
D|-------4-----------------|-----4---------------|
A|-6-----------------4-----|-6-------------4-----|
E|-------------6-----------|---------6-----------|

   12/8 Timing               10/8 Timing
E|-------------------------|---------------------|
B|-------------------------|-----------------X---|
G|-------------------------|-----------------X---|
D|-------4-----------------|-------4---------X---|
A|-6-----------------4-----|-6-------------------|
E|-------------6-----------|-------------6-------|

   12/8 Timing
   e   e   h               e   e   e   e   e   e
E|-------------------------------------------------|
B|-15------15----------\---------------------------|
G|-14------14----------\-----------14------12------|
D|-15------15----------\---10--12--12--12--12--12--|
A|-------------------------------------------------|
E|-------------------------------------------------|

   q       s  s  e    e   e   e    e   e    e   e  e
E|------------------------------------------------------|
B|----------------------------------------------NH-NH---|
G|-10v------------------------------------------12-12---|
D|---------12-10----------------------------------------|
A|---------------12-\-8---10--10-/-12--10-/-12----------|
E|----------------------------8--/-10--8--/-10----------|

   e   h               e   e   q       e   s  E
E|--------------------------------------------------|
B|-NH--NH------------------NH--------------12-AH----|
G|-7---5bar----------------4------------------12----|
D|-----------------------------0---\----------------|
A|-------------------------------------X------------|
E|-------------------------------------X------------|


   q       e   s  s  s  s s  s  s  s  s  s  s  s  s  s  s  s  s  s
E|------------------------------------------------------------------|
B|----------------------0-------------------------------------------|
G|---------AH-------------------------12-12-------------------10-10-|
D|-12v-----12--12-12-12-X-12-12-12-12-12-12-10-10-10----10-10-10-10-|
A|---------------------------------------------------12-------------|
E|------------------------------------------------------------------|

        e   s  s  s  s  e   e   e     q         e   e     E     s
E|-------------------------------------------------------------AH-|
B|------------------------------0---------------9---0---8h9-----8-|
G|-9--/-10--10----10----10--10--0---8h10--------------------------|
D|-9--/-10--10----10----10--10--0---------------------------------|
A|-10-/-11-----11----11-11--11------------------------------------|
E|----------------------------------------------------------------|

   q       e   e   s s s s  e   e   e   e   e   e
E|-AH------AH--AH-----------------------------------|
B|-9-------9---7------------------------------------|
G|-----------------X-0-0-12-12--12--10------4-/-10--|
D|-----------------X--------10----------------------|
A|--------------------------------------------------|
E|--------------------------------------------------|

   e   e   s  s  e+q         s s s s s s s s e   s s
E|-10------10-10-10----\-----------------------------|
B|-----8---10-8--8-----\-----------------------------|
G|-----10--10-10-10----\-----X-X-X-X-X-X-X-X-----X-X-|
D|---------------------------X-X-X-X-X-X-X-X-----X-X-|
A|---------------------------X-X-X-X-X-X-X-X-0---X-X-|
E|---------------------------X-X-X-X-X-X-X-X-----X-X-|

   s s s s e   e   s s e   e   e   s s e   e   s s
E|-------------------------------------------------|
B|---------------------AH--AH----------------------|
G|-5h7-X-X-7---5---X-X-5---5^--0---5-----------X-X-|
D|-----------------------------------7-6---5---X-X-|
A|---------------------------------------------X-X-|
E|-------------------------------------------------|

E|-------------------------|-------------------------|
B|-8-----8---6-8---6---8---|-6-----6---6-8---6---8---|
G|-7-----7---5-7---5---7---|-5-----5---5-7---5---7---|
D|-5-----5---3-5---3---5---|-3-----3---3-5---3---5---|
A|-------------------------|-------------------------|
E|-------------------------|-------------------------|

E|-------------------------|-------------------------|
B|-------------------------|-------------------------|
G|-----0-----0-----0-------|-----0-----0-----0-------|
D|---3-----3-----3---3-----|---3-----3-----3---3-----|
A|-5-----4-----5-------4---|-5-----4-----5-------4---|
E|-------------------------|-------------------------|

   10/8 Timing
E|---------------------|---------------------|
B|---------------------|---------------------|
G|---------------------|---------------------|
D|---------------------|---------------------|
A|-2---2-2---2-2---2---|-2---2-2---2-2---2---|
E|-0---0-0---0-0---0---|-0---0-0---0-0---0---|

E|---------------------|---------------------|
B|-------0-------------|-------0-------------|
G|-----5---------------|-----5-----5---------|
D|---3-----------------|---3---------3-------|
A|-5-------------------|-5-------------------|
E|---------------------|---------------------|

E|---------------------|---------------------|
B|---------------------|---------------------|
G|---------------------|---------------------|
D|---------------------|---------------------|
A|-2---2-2---2-2---2---|-2---2-2---2-2---2---|
E|-0---0-0---0-0---0---|-0---0-0---0-0---0---|

E|---------------------|---------------------|
B|-------0-------------|-------0-------------|
G|-----5---------------|-----5-----5---------|
D|---3-----------------|---3---------3-------|
A|-5-------------------|-5-------------------|
E|---------------------|---------------------|

E|---------------------|---------------------|
B|---------------------|---------------------|
G|---------------------|---------------------|
D|---------------------|---------------------|
A|-2---2-2---2-2---2---|-2---2-2---2-2---2---|
E|-0---0-0---0-0---0---|-0---0-0---0-0---0---|

E|---------------------|---------------------|
B|-------0-------------|-------0-------------|
G|-----5---------------|-----5-----5---------|
D|---3-----------------|---3---------3-------|
A|-5-------------------|-5-------------------|
E|---------------------|---------------------|

E|---------------------|---------------------|
B|---------------------|---------------------|
G|---------------------|---------------------|
D|---------------------|---------------------|
A|-2---2-2---2-2---2---|-2---2-2---2-2---2---|
E|-0---0-0---0-0---0---|-0---0-0---0-0---0---|

E|---------------------|---------------------|
B|-------0-------------|-------0-------------|
G|-----5---------------|-----5-----5---------|
D|---3-----------------|---3---------3-------|
A|-5-------------------|-5-------------------|
E|---------------------|---------------------|

E|---------------------|---------------------|
B|---------------------|---------------------|
G|---------------------|---------------------|
D|---------------------|---------------------|
A|-2---2-2---2-2---2---|-2---2-2---2-2---2---|
E|-0---0-0---0-0---0---|-0---0-0---0-0---0---|

E|---------------------|---------------------|
B|-------0-------------|-------0-------------|
G|-----5---------------|-----5-----5---------|
D|---3-----------------|---3---------3-------|
A|-5-------------------|-5-------------------|
E|---------------------|---------------------|

E|---------------------|---------------------|---------------------|
B|---------------------|---------------------|---------------------|
G|---------------------|---------------------|---------------------|
D|---------------------|---------------------|---------------------|
A|-2---2-2---2-2---2---|-2---2-2---2-2---2---|-2---2-2---2-2---2-2-|
E|-0---0-0---0-0---0---|-0---0-0---0-0---0---|-0---0-0---0-0---0-0-|

   12/8 Timing               10/8 Timing
E|-------------------------|---------------------|
B|-------------------------|---------------------|
G|-------------------------|---------------------|
D|-------4-----------------|-------4-------------|
A|-6-----------------4-----|-6---------------4---|
E|-------------6-----------|-------------6-------|

   12/8 Timing               10/8 Timing
E|-------------------------|---------------------|---------------------|
B|-------------------------|---------------------|---------------------|
G|-------------------------|---------------------|---------------------|
D|-------4-----------------|-----4---------------|-------4-------------|
A|-6-----------------4-----|-6-------------4-----|-6---------------4h6-|
E|-------------6-----------|---------6-----------|-------------6-------|

   12/8 Timing
E|-------------------------|-------------------------|
B|-------------------------|-------------------------|
G|-----0-----0-----0-------|-----0-----0-----0-------|
D|---3-----3-----3---3-----|---3-----3-----3---3-----|
A|-5-----4-----5-------4---|-5-----4-----5-------4---|
E|-------------------------|-------------------------|

E|-------------------------|-------------------------|
B|-------------------------|-------------------------|
G|-----0-----0-----0-------|-----0-----0-----0-------|
D|---3-----3-----3---3-----|---3-----3-----3---3-----|
A|-5-----4-----5-------4---|-5-----4-----5-------4---|
E|-------------------------|-------------------------|

E|-------------------------|-------------------------|
B|-------------------------|-------------------------|
G|-----0-----0-----0-------|-----0-----0-----0-------|
D|---3-----3-----3---3-----|---3-----3-----3---3-----|
A|-5-----4-----5-------4---|-5-----4-----5-------4---|
E|-------------------------|-------------------------|

E|-------------------------|-------------------------|
B|-------------------------|-------------------------|
G|-----0-----0-----0-------|-----0-----0-----0-------|
D|---6-----6-----6---6-----|---6-----6-----6---6-----|
A|-8-----7-----8-------7---|-8-----7-----8-------7---|
E|-------------------------|-------------------------|

E|-------------------------|-------------------------|
B|-------------------------|-------------------------|
G|-----0-----0-----0-------|-----0-----0-----0-------|
D|---6-----6-----6---6-----|---6-----6-----6---6-----|
A|-8-----7-----8-------7---|-8-----7-----8-------7---|
E|-------------------------|-------------------------|

E|-------------------------|-------------------------|
B|-------------------------|-------------------------|
G|-------------------------|-------------------------|
D|-------------------------|-------------------------|
A|-5-----5---3-5---3---5---|-3-----3---3-5---3---5---|
E|-3-----3---1-3---1---3---|-1-----1---1-3---1---3---|

E|-------------------------|-------------------------|
B|-------------------------|-------------------------|
G|-----0-----0-----0-------|-----0-----0-----0-------|
D|---3-----3-----3---3-----|---3-----3-----3---3-----|
A|-5-----4-----5-------4---|-5-----4-----5-------4---|
E|-------------------------|-------------------------|

E|-------------------------|-------------------------|
B|-8-----8---6-8---6---8---|-6-----6---6-8---6---8---|
G|-7-----7---5-7---5---7---|-5-----5---5-7---5---7---|
D|-5-----5---3-5---3---5---|-3-----3---3-5---3---5---|
A|-------------------------|-------------------------|
E|-------------------------|-------------------------|

E|-------------------------|-------------------------|
B|-------------------------|-------------------------|
G|-----0-----0-----0-------|-----0-----0-----0-------|
D|---3-----3-----3---3-----|---3-----3-----3---3-----|
A|-5-----4-----5-------4---|-5-----4-----5-------4---|
E|-------------------------|-------------------------|

E|-------------------------|-------------------------|
B|-8-----8---6-8---6---8---|-6-----6---6-8---6---8---|
G|-7-----7---5-7---5---7---|-5-----5---5-7---5---7---|
D|-5-----5---3-5---3---5---|-3-----3---3-5---3---5---|
A|-------------------------|-------------------------|
E|-------------------------|-------------------------|

E|-------------------------|-------------------------|
B|-------------------------|-------------------------|
G|-----0-----0-----0-------|-----0-----0-0-----------|
D|---3-----3-----3---3-----|---3-----3---3-----------|
A|-5-----4-----5-------4---|-5-----4-----5-----------|
E|-------------------------|-------------------------|



Tablature Explanation

/       - Slide Down
\       - Slide Up
h       - Hammer On
v       - Vibrato
bar     - Tremolo Bar
^       - Full Bend
NH      - Natural Harmonic
AH      - Artificial Harmonic
X       - Left Hand Muting


Notation

w - Whole
h - Half
q - Quarter
e - 8th
s - 16th
t - 32th
x - 64th

Capital durations are dotted notes.
  development and support by
dmitry ivanov