rock
 
|tablatures   |lyrics   |discussion forums   |more tabs @ XGuitar.com

Rush tabs

The Trees bass tab

Rush: The Trees
>From the album Hemispheres (Mercury Records)
Copyright 1978 Core Music Publishing
Music by Lee and Lifeson
Lyrics by Peart

Comments/corrections to Sean Jones 

Transcribed by Erik Habbinga, Sean Jones, and Marcelo Tilli


    H   +H   +H   +H   +H   +H   +H   +H   H   H   H   H   H   e e e Q
+-----+----+----+----+----+----+----+----+---+---+---+---+---+---------+
|6:-R-|----|----|----|----|----|----|----|---|-4-|---|---|---|---------|
|8:---|----|----|----|----|----|----|----|-5-|---|-4-|---|-7-|---2-5---|
+-----+----+----+----+----+----+----+----+---+---+---+-5-+---+-3-----5-+


  q e q e   H   e e e s s e e   e  e e e e e   e e h   e e e e e e
+---------+---+---7-6-7-6---4-+--------------+-------+-------------+
|---------|---|-----------7---|-4-5-4--------|-----6-|-------R---R-|
|-------5-|---|-5-------------|--------7-5---|---6---|-----4---5---|
+-7-7-5---+-7-+---------------+------------7-+-4-----+-5-7---------+


  e e q e e   e e e Q   e e e e e e   H   H   H   H   +H     e e e e e e e e
+-----9-----+---------+-------------+-4-+---+---+---+----+-------------------+
|---9---9---|---------|---------4-7-|---|---|---|---|----|4:-----------------|
|-7-------5-|---2-5---|---4-5-7-----|---|-5-|---|---|----|4:-----------------|
+-----------+-3-----5-+-7-----------+---+---+-5-+-7-+----+---2-2-2-2-2-2-2-2-+


  e e e e e e e e   e e e e e e e e   e e e e e e e e   Q q e e e   Q q e e e
+-----------------+-----------------+-----------------+-----------+-----------+
|-----------------|-----------------|-----------------|-----------|-----------|
|-----------------|-----------------|-----------------|-----------|-----4-5-7-|
+-2-2-2-2-2-2-2-0-+-3-3-3-3-3-3-3-3-+-3-3-3-3-3-3-3-0-+-5-5-5-2-5-+-7-7-------+


  Q q e e e   Q q e e e   Q q+s s e e   q e q e e e   e e e q e e e
+-----------+-----------+-------------+-------------+-------------4-+
|-5-4-5-4---|-----------|-------------|-------------|-5---5-4-7-7---|
|---------5-|-7-5-4-5-7-|-------------|-------4-5-7-|---7-----------|
+-----------+-----------+-5-5---5-2-5-+-7-5-7-------+---------------+


  Q q e e e   Q q e s s e   Q q e e e   e e e q e e e   q q e^e^e^e^e^e^
+-----------+-------------+-----------+---------------+-----------------+
|-7-5-4-----|-----7-5-5---|-----------|-5---5-4-5-4---|-----5-4---------|
|-------7-5-|-----------7-|-----4-5-7-|---7---------5-|-7-7-----7-5-4---|
+-----------+-5-5---------+-7-7-------+---------------+---------------7-+


  q e e q s s e   +e q e e q s s   q e q q e   +e q q e e e   e e Q e e e
+---------------+----------------+-----------+--------------+-------------+
|---R---4-2-2-4-|------4---4-----|-----5-7-5-|----4---------|---7-R-------|
|---------------|----4-----------|---5-------|------7-5-7-4-|-------------|
+-2---2---------+--------2---0-2-+-3---------+--------------+-5-----5-5-5-+


  Q e q e e     e e e e e e  e e e e e e   q e e e e   q e e e e   q e e e e
+-----------+---------------+-------------+-----------+-----------+-----------+
|-7---------|6:-7-7-7-5-5-5-|-4-4-4-------|-------7-5-|-4-4-5-4---|-----------|
|-----------|8:-------------|-------7-7-7-|-5-5-5-----|---------7-|-4-4-5-4---|
+---5-5-5-5-+---------------+-------------+-----------+-----------+---------7-+

                *
  e e e e e e   Q e e e   e e e e e e   e e e e e e   q e e s s e
+-------------+---------+-------------+-------------+-------------+
|-------------|---------|-------------|---------4-7-|-9-----9-9---|
|-----4-4-5-7-|---7-5---|---2-5-------|---4-5-7-----|---9-------9-|
+-5-5---------+-0-----7-+-3-----5-5-5-+-7-----------+-----7-------+


  e e e e e e
+---7-6-7---4-+
|---------7---|
|-5-----------|
+-------------+

                    *
  e e e e e e   e e e e e e   e e e e e e   e e e e e e   e e e e e e
+-------------+-----x-------+-------------+-------9-----+-------------+
|-4-5-4-------|---6---6-----|-----------4-|-----9---9---|-------------|
|-------7-5---|-4-------4-4-|-----4-5-7---|---7-------7-|---2-5---4-7-|
+-----------7-+-------------+-5-7---------+-0-----------+-3-----5-----+


  e e e e s s e   e e e e  e e   e s s e e e e     e e e e     w   +w

+---------------+---6-7-9-11-9-+-7-6-7---------+-----------+-----+----+--------+
|---------4-4-7-|-9------------|-------9-7-4---|2:---------|4:---|----|-16 mm.-|
|---4-5-7-------|--------------|-------------5-|4:-7-5-----|4:---|----|-rest---|
+-7-------------+--------------+---------------+-------7-5-+---7-+----+--------+


    w+q   +w+q  4   w+q   w+q   w+q   w+q
+--------+-------+------+-----+-----+------+
|*5:-----|------*|*-----|-----|-----|-----*|
|*4:-----|------*|*-----|-----|-----|-5---*|
+----5---+-------+--5---+-7---+-5---+------+


  Q q q e e e   Q q q e e e   Q q q e e e   Q q q e e e
+-------------+-------------+-------------+-------------+
|-------------|-------------|-------------|-------------|
|-------------|-2-2-2-2-----|-------------|-5-5-5-5-----|
+-5-5-5-5-2-3-+---------2-3-+-5-5-5-5-2-3-+---------2-3-+


  Q q q e e e   e q q q e e e   e q q q e e e   e q q q e e e   Q q e e e e e
+-------------+---------------+---------------+---------------+---------------+
|-------------|---------------|---------------|---------------|---------------|
|-------------|-2-2-2-2-2-----|---------------|-5-5-5-5-5-----|---------------|
+-5-5-5-5-2-3-+-----------2-3-+-5-5-5-5-5-2-3-+-----------2-3-+-5-5-5-5-5-2-3-+


  Q q e e e e e   Q q e e e e e   Q q e e e e e   Q q e e e e e
+---------------+---------------+---------------+---------------+
|---------------|---------------|---------------|---------------|
|-2-2-2-2-2-----|---------------|-5-5-5-5-5-----|---------------|
+-----------2-3-+-5-5-5-5-5-2-3-+-----------2-3-+-5-5-5-5-5-2-3-+


  e q q q e e e   e q q e e e e e     e e e s s e e e e e e e e e
+---------------+-----------------+-------------------------2-4-+
|---------------|-----------------|6:-----------------2-4-5-----|
|-2-2-2-2-2-----|-----------------|4:-5-5-5-4-4-5-4-5-----------|
+-----------2-3-+-5-5-5-5-5-5-2-3-+-----------------------------+


  e q q e e q q e   e q q e e e h   e q q e e q q e   e e e e e e e e h
+-----------------+---------------+-----------------+-------------------+
|-5-5-5-4-5-5-5-4-|-----------R-R-|-5-5-5-7-5-4-5-4-|---------4-5---R-R-|
|-----------------|-5-5-5-4-------|-----------------|-5-4-5-7-----------|
+-----------------+---------5-----+-----------------+-------------5-----+


  e q q e e q q e   e q q e e e h   e q q e e q q e   e q q e e e e e e e
+-----------------+---------------+-----------------+---------------------+
|-5-5-5-7-9-7-5-4-|-----------R-R-|-5-5-5-7-5-5-5-4-|-------------------7-|
|-----------------|-5-4-5-7-------|-----------------|-5-5-5-4-----4-5-7---|
+-----------------+---------5-----+-----------------+---------5-7---------+


    e e e e e e e e e e   e e e e e e e e e e   e e e e e e e e e e
+-----------------------+---------------------+---------------------+
|5:---------------------|---------R---R-------|---------------------|
|4:-----------5-5-5-----|-2-2-2---------------|-----------5-5-5-----|
+---7-7-7-5-5-------5-5-+-------2---2---2-5-5-+-7-7-7-5-5-------5-5-+


  e e e e e e e e e e     Q q q e   Q q e e e   Q q s s e e   Q e e e e e
+---------------------+-----------+-----------+-------------+-------------+
|---------R---R---R---|4:---------|-----------|-5-4-4-5-4---|-----R-------|
|-2-2-2---------------|4:---------|-----4-5-7-|-----------5-|-7-5---4-5-7-|
+-------2---2---2---2-+---5-5-5-5-+-7-7-------+-------------+-------------+


  Q q e s s e   q e q e e e   e e e q e e e   e s s e s s e e e e
+-------------+-------------+---------------+---9-9---7-7---7---7-+
|-----7-5-4---|-------------|-5---5-4-7-7-9-|-7-----R-----7---7---|
|-----------7-|-------4-5-7-|---7-----------|---------------------|
+-5-5---------+-7-5-7-------+---------------+---------------------+

                                                                    *
  q e q e e e   e e e q e e e   Q q e e e   e e e e e e e e   e e e e e e e e
+-------------+---------------+-----------+-----------------+-----------------+
|---7---5-4---|---------------|-5-4-5-4---|-----------------|---------4-4-4-4-|
|-----------7-|---4-5-4---5-7-|---------5-|-7-7-5-5-4-5-4---|-----------------|
+-5---5-------+-7-------7-----+-----------+---------------7-+-2-2-2-2---------+


  e e e e e e e e    e e e e e e e e   e e e e e e e e   w   +w   +w   +w
+------------------+-----------------+-----------------+---+----+----+----+
|-4----------------|-----------5-5---|-5-------5-------|---|----|----|----|
|------------------|-----------------|-------5---5-----|---|----|----|----|
+--2-2-2-2-2-2-2-2-+-3-3-3-3-3-----3-+---3-3-------3-3-+-5-+----+----+----+


==========================================================================

                Created using the Bass Tab Creator
     __         by Mario D'Alessio (motcid!marble!dalessio)
   +|oo|+
   +|oo|+       Notes:  w = Whole  h = Half  q = Quarter
     ||                 e = 8th    s = 16th  t = 32nd  x = 64th
     ||
     ||                 Capital durations are dotted notes
     ||                   (equal to 1.5 times the duration value)
     ||
     ||             #
     ||         +----+                   +----+
  _  ||  _      |*--*+  = MEASURE        |4:--|  = TIME
  \\_||_//      |*--*+    REPEATS        |4:--|    SIGNATURES
   | [] |       +----+   (#=Num Repeats) +----+
   | || |
  /  []  \      + = TIE         ^  = TRIPLET           > = BEND
  \______/      H = HAMMER ON   \  = SLIDE TO FRET     R = Rest
                P = PULL OFF    \X = SLIDE TO NOWHERE  ~ = Trill

==========================================================================
  development and support by
dmitry ivanov