rock
 
|tablatures   |lyrics   |discussion forums   |more tabs @ XGuitar.com

Rush tabs

The Necromancer: Into Darkness/Under the... bass tab

Artist:	Rush
Album:	Caress of Steel (1975)
Track:	The Necromancer (#4)

3 Parts:
1. Into Darkness
2. Under the Shadow
3. Return of the Prince


====================== PART I ====================================
Rush: Into Darkness
>From the album Caress of Steel (Mercury Records)
Copyright 1975 Core Music Publishing
Music by Lee and Lifeson
Lyrics by Peart

Comments/corrections to Sean Jones 

Transcribed by Sean Jones


                          h h+  w+  w+  w     h h+  w+  w+  H q    h h+  Q e e
||---Gtr Ad-|--12 mm.-||--r---|---|---|----||-r---|---|---|-----||-----|-------
||-4:-Lib---|---rest--||*-e---|---|---|---*||-e---|---|---|-----||---7-|-------
||-4:-------|---------||*-s---|---|---|---*||-s---|---|---|-----||-----|-----7-
||----------|---------||--t-0-|---|---|----||-t-0-|---|---|---2-||-0---|---7---


 Q   h h   Q Q q   h h   h e q e   h q e e   Q q e q   h h   h e q e   h q e
---|-----|-------|-----|---------|---------|---------|-----|---------|---------
---|-----|-------|-----|---------|---------|---------|-----|---------|---------
-5-|-5---|-3-----|---7-|---7-5---|---7-0-2-|-3-------|---7-|---7-5---|---7-0---
---|---0-|---3-2-|-0---|-0-----7-|-0-------|---3-3-2-|-0---|-0-----7-|-0-------


 e   Q q e e e   e e e e h   h e q e   h e e e s s   Q s s e e e e   e e e e
---|-----------|-----------|---------|-------------|---------------|-----------
---|-----------|-----------|---------|-------------|---------------|-----------
-2-|-3---------|-----7---7-|---7-5---|---7-5-7-0-2-|-3-------------|-7---7-7---
---|---3-3-2-2-|-0-0---0---|-0-----7-|-0-----------|---3-3-3-3-2-2-|---0-------


 h   Q e e q e   q e e e e e s s   Q e e e e e   e q e h   h e q e   h h   Q
---|-----------|-----------------|-------------|---------|---------|-----|-----
---|-----------|-----------------|-------------|---------|---------|-----|-----
-7-|---5/7-5---|---7-5-7-5-7-5---|-3-----------|-------7-|---7-5---|---7-|-3---
---|-0-------7-|-0-------------7-|---3-3-3-2-2-|-0-0-0---|-0-----7-|-0---|-----


 Q q    w   h e q e   w   Q Q q   w   h e q e   h q e e   Q q e q   h h   h
-----||---|---------|---|-------|---|---------|---------|---------|-----|------
-----||---|---------|---|-------|---|---------|---------|---------|-----|------
-----||---|---7-5---|---|-3-----|---|---7-5---|---7-0-2-|-3-------|---7-|------
-3-2-||-0-|-0-----7-|-0-|---3-2-|-0-|-0-----7-|-0-------|---3-3-2-|-0---|-0----


 e q e   h q e e   Q q e q   h h+  h e q e   h q e e   h q q   h h   h e q e
-------|---------|---------|-----|---------|---------|-------|-----|---------|-
-------|---------|---------|-----|---------|---------|-------|-----|---------|-
-7-5---|---7-0-2-|-3-------|---7-|---7-5---|---7-0-2-|-3-----|---7-|---7-5---|-
-----7-|-0-------|---3-3-2-|-0---|-------7-|-0-------|---3-2-|-0---|-0-----7-|-


 h e e s s e   Q q e q   q q h   h e e e e   Q e e e s s e   Q e q e e   q s
-------------|---------|-------|-------r---|---------------|-----------|-------
-------------|---------|-------|-------e---|---------------|-----------|-------
---7-5-7-5---|-3-------|-----7-|---7-5-s---|---5-7-5-7-5---|-3---------|---7---
-0---------7-|---3-3-2-|-0-0---|-0-----t-7-|-0-----------7-|---3-3-2-2-|-0-----


 s e h   h e q e   q e e e e s s e   Q e e e e e   q e e h   h e q e   h q e
-------|---------|-----------------|-------------|---------|---------|---------
-------|---------|-----------------|-------------|---------|---------|---------
-5---7-|---7-5---|---7-5-7-5-7-5---|-3-----------|---7-5-7-|---7-5---|---7-0---
---7---|-0-----7-|-0-------------7-|---3-3-3-2-2-|-0-------|-0-----7-|-0-------


 e   Q q e q   q q h+  w+  w
---|---------|-------|---|---||
---|---------|-------|---|---||
-2-|-3-------|---7---|---|---||
---|---3-3-2-|-0---0-|---|---||


====================== PART II ===================================

Rush: Under the Shadow
>From the album Caress of Steel (Mercury Records)
Copyright 1975 Core Music Publishing
Music by Lee and Lifeson
Lyrics by Peart

Comments/corrections to Sean Jones 

Transcribed by Sean Jones


                    H e e+  q q e e q   H e e+
-Ad Lib-|-7 mm.-||--r-r---|---------r-|-r-r-----
--------|-rest--||*-e-e---|---------e-|-e-e-----
--------|-------||*-s-s-7-|-----7-7-s-|-s-s-7---
--------|-------||--t-t---|---0-----t-|-t-t-----


+q q e e q     H e e+  q q e e q   e Q e q e+  q q e e q   e e e e e e e e
---------r--||-r-r---|---------r-|-r---r-----|---------r-|-r---------------|---
---------e-*||-e-e---|---------e-|-e-5-e-5---|---------e-|-e---------------|---
-7---7-5-s-*||-s-s-7-|-----7-7-s-|-s---s---7-|-7---7-5-s-|-s---------5-6-7-|---
---0-----t--||-t-t---|---0-----t-|-t---t-----|---0-----t-|-t-3-5-6-7-------|---


 q q e e q   H e e+  q q e e q     H e e+  q q e e q   H e e+ q q e e q  4x
---------r-|-r-r---|---------r-||--r-r---|---------r-|-r-r------------r--||----
---------e-|-e-e---|---------e-||*-e-e---|---------e-|-e-e------------e-*||----
-----7-7-s-|-s-s---|-----7-5-s-||*-s-s-7-|-----7-7-s-|-s-s-7--7---7-5-s-*||----
-0-0-----t-|-t-t-0-|---0-----t-||--t-t---|---0-----t-|-t-t------0-----t--||----


 H e e+  q q e e q   e Q e q e+  q q e e q   e e e e e e e e   q q e e q   e
-r-r---|---------r-|-r---r-----|---------r-|-r---------------|---------r-|-r---
-e-e---|---------e-|-e-5-e-5---|---------e-|-e---------------|---------e-|-e---
-s-s-7-|-----7-7-s-|-s---s---7-|-7---7-5-s-|-s---------5-6-7-|-----7-7-s-|-s---
-t-t---|---0-----t-|-t---t-----|---0-----t-|-t-3-5-6-7-------|-0-0-----t-|-t---


 Q e q e+  q q e e q   e e e e e e e e    q q e e e e+  e e e e e e e e+  e e
---r-----|---------r-|-r---------------||-------------|-----------------|------
-5-e-5---|---------e-|-e---------------||-5-----------|---------------5-|---5--
---s---7-|-7---7-5-s-|-s---------5-6-7-||---7-5-6-7---|-----7---5-6-7---|------
---t-----|---0-----t-|-t-3-5-6-7-------||-----------0-|---0---0---------|------


 e e e e e e+  e e e e e e e e+  q e e e e e e+  e e e e e e e e+  e e e e e
-------------|-----------------|---------------|-----------------|-------------
-------------|---------------5-|---------------|---------------5-|---5---------
-7---5-6-7---|---------5-6-7---|---7---5-6-7---|-----7---5-6-7---|-----7---5---
---0-------0-|-0-3-5-7---------|-----0-------0-|-0-0---0---------|-------0-----


 e e e   e e e e e q e+  q e e e e e e+  e e e e e e e e+  e e e e e e e e+
-------|---------------|---------------|-----------------|-----------------|---
-----6-|-7-6-7-6-7-6-5-|---------------|-----------------|-----------------|---
-6-7---|---------------|---7---5-6-7---|-----7---5-6-7---|-----7---5-6-7---|---
-------|---------------|-----0-------0-|---0---0-------0-|---0---0-------0-|---


 +e e e e e e e e+  q e e e e e e+  e e e e e e e e+  e e e e e e e e+  e e e
------------------|---------------|-----------------|-----------------|--------
----------------5-|---------------|-----------------|---------------5-|---4-5--
----------5-6-7---|---7---5-6-7---|-----7---5-6-7---|-----7---5-6-7---|--------
----3-5-7---------|-----0-------0-|---0---0-------0-|---0---0---------|--------


 e e e e e+  q e e e e e e+  e e e e e e e e+  e e e e e e e e   e e e e e e
-----------|---------------|-----------------|-----------------|-------7-9-----
-4-5-4-4-5-|---------------|-----------------|---------------6-|-7-8-9-----9---
-----------|---7---5-6-7---|-----7---5-6-7---|-----7---5-6-7---|---------------
-----------|-----0-------0-|---0---0-------0-|---0---0---------|---------------


 e e+  q e e e e e e+  e e e e e e e e+  e e e e e e e e+  e e e e e e e e+
-7\--|---------------|-----------------|-----------------|-----------------|---
---5-|---------------|-----------------|-----------------|---------------5-|---
-----|---7---5-6-7---|-----7---5-6-7---|-----7---5-6-7---|-------------5---|---
-----------0-------0-|---0---0-------0-|---0---0-------0-|---3-3-5-6-7-----|---


 q e e e e e e+  e e e e e e e e+  q e e e e e e+  e e e e e e e e+  q e e e
---------------|-----------------|---------------|-----------------|-----------
---------------|---------------5-|---------------|---------------5-|-----------
---7---5-6-7---|-----7---5-6-7---|---7---5-6-7---|---------5-6-7---|---7---5---
-----0-------0-|---0---0---------|-----0-------0-|-0-3-5-7---------|-----0-----


 e e e+  q e e e e e e+  q e e e e e e+  e e e e e e e e+  q q e e e e+  e e
-------|---------------|---------------|-----------------|-------------|-------
-------|---------------|-------------5-|---4-5-4-5-4---5-|-------------|-------
-6-7---|---7---5-6-7---|---7---5-6-7---|-------------7---|---7-5-6-7---|-------
-----0-|-----0-------0-|-----0---------|-----------------|-----------0-|---0---


 e e e e e e+  e e e e e e e e   e e e e e q e+  q q e e e e+  e e e e e e e
-------------|-----------------|---------------|-------------|-----------------
-------------|---------------6-|-7-6-7-6-7-6-5-|-------------|-----------------
-7---5-6-7---|-----7---5-6-7---|---------------|---7-5-6-7---|-----7---5-6-7---
---0-------0-|---0---0---------|---------------|-----------0-|---0---0---------


 e+  e e e e e Q   e e e e e s s s s e+     q q e e e e+  q q e e e e+  q q e
---|-------------|-9-7-----------------||---------------|-------------|--------
-5-|---5---------|-----9-7-5-5-7-5---5-||*--------------|-----------5-|--------
---|-----7---5-5-|-----------------7---||*----7-5-6-7---|---7-5-6-7---|---7-5--
---|-------0-----|---------------------||------------0--|-------------|--------


 e e e   Q e Q e+ 3x    +q q e e e e+    q q e e q   q H+  w+  w
-------|-r---r----||-||----------r----||---------r-|-r---|---|---|--Synth--||--
-----5-|-e-7-e-5-*||-||*---4-----e-5-*||---4-----e-|-e---|---|---|--Ad lib-||--
-7-5---|-s---s---*||-||*---------s---*||---------s-|-s-7-|---|---|---------||--
-------|-t---t----||-||------0-0-t----||-----0-0-t-|-t---|---|---|---------||--


         E E E E E E e e e 12x     e s e s e s e s e s e s e e e   e s e s e
-----||--------------5------||-||--------------------------5-----|-------------
-12:-||*/7-7/7-7/7-7-----5-*||-||*-7---7---7---7---7---7-------5-|-7---7---7---
-8:--||*---------------7---*||-||*---0---0---0---0---0---0---7---|---0---0-----
-----||---------------------||-||--------------------------------|-------------


 s e s e s e s e e e         e s e s e s e s e s e s e e e  3x e s e s e s e
----------------------||-||--------------------------5------||-----------------
---7---7---7---5-4---*||-||*-7---7---7---7---7---7-------5-*||-7---7---7---7---
-0---0---0---0-----7-*||-||*---0---0---0---0---0---0---7---*||---0---0---0-----
----------------------||-||---------------------------------||-----------------


 s e s e s e e e     e s e s e s e s e s e s e e e     e s e s e s e s e s e
-----------------||--------------------------5------||-------------------------
---7---7---5-4---||*-7---7---7---7---7---7-------5-*||-7---7---7---7---7---7---
-0---0---0-----7-||*---0---0---0---0---0---0---7---*||---0---0---0---0---0-----
-----------------||---------------------------------||-------------------------


 s e e e   e s e s e s e s e s e s e e e   e s e s e s e s e s e s e e e
---------|-------------------------5-----|-------------------------------||----
---5-4---|-7---7---7---7---7---7-------5-|-7---7---7---7---7---7---5-4-5-||*---
-0-----7-|---0---0---0---0---0---0---0---|---0---0---0---0---0---0-------||*---
---------|-------------------------------|-------------------------------||----


 e s e s e s e s e s e s e e e  4x     s s s s s s s s s s s s s s s s s s e
-------------------------5------||-||--------------------------------------5---
-7---7---7---7---7---7-------5-*||-||*-5-7-7-7-7-7-5-7-7-7-7-7-5-7-7-7-7-7-----
---0---0---0---0---0---0---7---*||-||*-----------------------------------------
--------------------------------||-||------------------------------------------


 e e         s s s s s s s s s s s s s s s s s s e q
------||-||--------------------------------------5-r--||
---5-*||-||*-5-7-7-7-7-7-5-7-7-7-7-7-5-7-7-7-7-7---e-*||
-7---*||-||*---------------------------------------s-*||
------||-||----------------------------------------t--||

====================== PART III ==================================

Rush: Return of the Prince
>From the album Caress of Steel (Mercury Records)
Copyright 1975 Core Music Publishing
Music by Lee and Lifeson
Lyrics by Peart

Comments/Corrections to Sean Jones 

Transcribed by Sean Jones


           q q q q
-19 mm.-||---------|---
-rest---||---------|---
--------||-7-7-7---|---
--------||-------7-|---


 q e q e q   q e q e e e   q e q e e e   q e q e e e   q e q e q   q e q e e
-----------|-------------|-------------|-------------|-----------|-------------
-----------|-------------|---7-7-------|-------------|-----------|-------------
---------7-|-7-7-7-7---7-|-------------|-7-7-7-7---7-|---------7-|-7-7-7-7-----
-5-5-5-7---|---------7---|-5-----7-7-5-|---------7---|-5-5-5-7---|---------7---


 e   Q s s e e e e   q e q e e e   Q q e e e   q e q e e e   q e e e e e e
---|---------------|-------------|-----------|-------------|---------------|---
---|---7-7-9-7-----|-------------|---7-6-4---|-------------|---------------|---
-7-|-----------9-7-|-7-7-7---7---|---------7-|-7-7-7---7---|---------------|---
---|-5-------------|-------7---7-|-5---------|-------7---7-|-5-5-5-5-5-7-7-|---


 q e q e e e   Q e e e e e   q Q e e e   Q e e e q   h e e e e   Q q e e e
-------------|---4---------|-----------|-----r---r-|---r-------|-----4-----|---
-------------|-----7-6-4---|-----------|-----e---e-|---e-------|---7---4-5-|---
-7-7-7---7---|-----------7-|-7-7---7---|-----s---s-|-7-s---7---|-----------|---
-------7---7-|-5-----------|-----7---7-|-5-5-t-7-t-|---t-7---7-|-5---------|---


 Q q e e e   Q q q e   h e q e   Q q q e   h e e e e   Q q q e   h e e e e
-----------|---------|---r-----|---------|---r-------|---------|---r-------|---
-----------|---------|---e-9---|---7-6-4-|---e-------|---9-7-6-|---e-------|---
-7-7---7---|-------9-|-7-s---7-|---------|-7-s---7---|---------|-7-s---7---|---
-----7---7-|-5-5-7---|---t-----|-5-------|---t-7---7-|-5-------|---t-7---7-|---


 Q q q e   Q q  e e  e   e  e e  e e  e e  e   q e e e e e e   Q q e e e   Q
---------|--/11-9------|---------------------|---9---r-------|-----------|-----
---------|--------11-9-|-11-9---------9------|-------e-------|---7-6-4---|-----
-----9---|-7-----------|------11-9-11---11-9\|-7---7-s-7---7-|---------7-|-7---
-5-7---9-|-------------|---------------------|-------t---7---|-5---------|-----


 q s s e e   e e e e e e e e    q e q e e e   Q s s e e e e   q e q e e e
-----------|-r---------------||-------------|---------------|-------------|---
-9-9-9-9-7-|-e-6-7-6---------||-------------|---7-7-9-7-----|---9---------|---
-----------|-s-------9-7-9---||-7-7-----7---|-----------9-7-|-7---7---9---|---
-----------|-t-------------9\||-----7-7---7-|-5-------------|-------7---7-|---


 e e e e e e e e   q e e e e  e  e   e  e e  e e  e e  e   q e e e e e e
---------r-------|-------r----11-9-|---------------------|---9---r-------|----
---------e-------|-----9-e-11------|-11-9---------9-11-9\|-------e-------|----
-----7---s---9---|-7-7---s---------|------11-9-11--------|-7---7-s---7---|----
-5-5---5-t-7---7-|-------t---------|---------------------|-------t-7---7-|----


 Q e e s s e e   q e q q  e+  e e  e e  e e e e   q e q e q | q e s s q q |---
---------------|-----9------|-------------------|---9-------|-------------|---
---7-7-7-7-9-7-|---9--/11-9-|---11-9------------|-----------|---7-7-7-9-7-|---
---------------|-7----------|--------11-9-7-9-7-|-7-----9---|-------------|---
-5-------------|------------|-------------------|-----7---7-|-5-----------|---


 q e q e e e   e e e e e e e e   e e e  e e  e  e  e    e e  e e  e e e e
---9---------|-----r---r---r---|---9----9-11----11-11-|-9-----------------|---
-------------|-----e-7-e-6-e---|-----11------11-------|---11-9------------|---
-7---7---7---|-----s---s---s-9-|-7--------------------|--------11-9-7-----|---
-------7---7-|-5-5-t---t---t---|----------------------|---------------9-7-|---


 e e e q e e e   e q q q e   q e q e q   Q q q e   q e q e e e   e e e q e
---------------|-----------|-----------|---------|-------------|--------------
---9-------9---|-----6-----|-----------|-----6---|-----9-6-----|--------------
-7---7---7---7-|-------9-7-|-7-7---7---|---------|-7-7-----9-7-|-7-------9----
-------7-------|-5-5-------|-----7---7-|-5-5---7-|-------------|---7-5-7------


 e e   q Q e q   Q e q q   q Q e  q   Q s s e e e e   q Q e  q   Q e e e e e
-----|---------|-----r---|-----11---|---------------|-----11---|--------------
-9---|---------|-7-7-e---|----------|---6-6-7-9-7-6-|----------|---7-9-7------
---9-|-7-7---7-|-----s-9-|-7-7------|---------------|-7-7------|---------9-7--
-----|-----7---|-----t---|--------7-|-5-------------|--------7-|-5------------


  q Q e q   Q s s e e e e   q h q   Q q e  e e   q Q e e e   e e e e e e e e
|---------|---------------|-------|-----11-9---|-----------|---r-9-r---r----|-
|---------|---7-7-9-7-6---|-------|----------9-|-----------|---e---e/9-e/9-7|-
|-7-7-7---|-------------9-|-7-7---|------------|-7-7-9-7---|---s---s---s----|-
|-------7-|-5-------------|-----7-|-5-5--------|---------9-|-5-t---t---t----|-


 q e q e e e   q e q e e e   q e q e e e   q e e e e e e   q Q e  e  e    e
-------------|-------------|-------------|---------------|---r-11-11----|-11--
-------------|-----7---7---|-------------|---------------|---e-------11-|-----
-7---7---7---|---7---7---9-|-7---7---7---|---------9---7-|-7-s----------|-----
---7---7---7-|-5-----------|---7---7---7-|-5-5-5-7---7---|---t----------|-----


 e s s  s s  e e  e e    q e q e e e   e e e q q e   e e e e e e e e   e e
-r-9-11-9--------------|-------------|-----9-------|-----------------|--------
-e--------11-9-11-9----|-----9-------|-7-7---7-6-7-|-------9---------|--------
-s------------------11-|-7-7---7---7-|-------------|-7---7---7---7---|--------
-t---------------------|---------7---|-------------|---7-------7---7-|-5-4----


 e e e e e e   q e  e e  e  e  e    e e  e e  e  e  e e    q e q e e e   e
-------------|------9-11----11-11-|-9--------------------|-------------|------
-------------|---11------11-------|---11---11----11---11-|-------------|------
-------9-9---|-7------------------|------9----11----9----|-7---7---7---|------
-5-7-7-----7-|--------------------|----------------------|---7---7---7-|-5----


 q e e e e e   q e e Q e   e e e e e e e e   Q e e e e e   Q e e e e e   H e
-------------|-----------|-----------------|-------------|-------------|------
-7-7-7-6-6---|---9-------|-----------------|-------------|-------------|------
-----------9-|-7---7-----|-----------------|-7-7-7-7---7-|-------------|-7----
-------------|-------7-7-|-5-5-5-5-5-5-7-7-|---------7---|-5-5-5-4-5-7-|---7--


 e   Q e e e e e   H e e   Q e e e e e   H e e   Q e q q
---|-------------|-------|-------------|-------|---------||-------------------
---|-------------|-------|-------------|-------|---------||-------------------
---|-------7-7-7-|-7-7---|-------------|-7-7---|---------||-------------------
-7-|-5-5-5-------|-----7-|-5-7-7-5-5-7-|-----7-|-5-5-7-7-||-------------------


================================================================================
==                           TABLATURE EXPLANATION                            ==
================================================================================

----------                ----------                ----t---
----5h8--- Hammeron       ----(8)--- Ghost          ----6--- Tap
----------                ---------- Note           --------
----5p8--- Pulloff        ----------                --------

----------                ----------                -----p--
----5/8--- Slide Up       -----x---- Dead           -----7-- Pop
----------                ---------- Note           --s-----
----5\8--- Slide Down     ----------                --5----- Slap

----------                ||------|| Repeat         --------
----5~~~-- Vibrato        ||*----*||                ---5^--- Bend
----------                ||*----*||                --------
----------                ||------||                --------

----------                ----------                --------
-4:------- Time           ----------                --------
-4:------- Signature      ----------                --------
----------                ----------                --------

Rhythm:
  w = whole note            W = dotted whole
  h = half note             H = dotted half
  q = quarter note          Q = dotted quarter
  e = eighth note           E = dotted eighth
  s = sixteenth note        S = dotted sixteenth
  t = 32nd note             T = dotted 32nd
  x = 64th note             X = dotted 64th
  ^ = triplet

================================================================================
==                Created with a demo version of BUCKET O' TAB                ==
==                  tablature creation software for Windows                   ==
==                      For more info email gse@his.com                       ==
================================================================================
  development and support by
dmitry ivanov