rock
 
|tablatures   |lyrics   |discussion forums   |more tabs @ XGuitar.com

Rush tabs

The Fountain of Lamneth: In the Valley... bass tab

Artist: Rush
Album:	Caress of Steel (1975)
Track:	The Fountain Of Lamneth (#5)
Tab:	Bass tab

6 parts:

1. In the Valley
2. Didacts and Narpets
3. No One At The Bridge
4. Panacea
5. Bacchus Plateau
6. The Fountain


====================== PART I ====================================


Rush: In the Valley
From the album Caress of Steel (Mercury Records)
Copyright 1975 Core Music Publishing
Music by Lee and Lifeson
Lyrics by Peart

Comments/corrections to Sean Jones seanj@execpc.com

Transcribed by Sean Jones


   27 mm rest    q q q q   w+  w   q q q q   Q e Q e   Q e q q
||------------||---------|---|---|---------|---------|------------
||-4:---------||-----4-5-|---|---|-----4-5/|-------7-|-7-----7----
||-4:---------||-5-7-----|-0-|---|-5-7-----|-0-0-0---|---0-0------
||------------||---------|---|---|---------|---------|------------


  q q q q   q s s s s q s s s s   q s s s s e e s^s^s^e   q q q
|---------|---------------------|-----------------------|---------
|-----4-5-|-7-----------7-7-7-7-|-7-----------7-5-7-5---|-----4---
|-5-7-----|---0-0-0-0-0---------|---0-0-0-0-0---------7-|-5-7-----
|---------|---------------------|-----------------------|---------


q   w   w   w+  w    w   H q   s s s s s s s s s s s s s s e
--|---|---|---|---||-r-|-r---|---------r---r---r---r---r-----|----
5/|---|---|---|---||-e-|-e---|---------e---e---e---e---e-----|----
--|-0-|-0-|-0-|---||-s-|-s-5-|-3-3---3-s-3-s-3-s-3-s-3-s-3-5-|----
--|---|---|---|---||-t-|-t---|-----3---t---t---t---t---t-----|----


s s s s s s s s s s s s s s e   h+Q e   h E E e   s s s s s s s
--------r---r---r---r---r-----|-------|---------|---------r---r---
--------e---e---e---e---e-----|-------|---7-5---|---------e---e---
3-3---3-s-3-s-3-s-3-s-3-s-3-5-|-0---7-|-0-----7-|-3-3---3-s-3-s---
----3---t---t---t---t---t-----|-------|---------|-----3---t---t---


s s s s s s s e   s s s s s s s s s s s s s s e    h+Q e   h s
--r---r---r-----|---------r---r---r---r---r-----||-------|--------
--e---e---e-----|---------e---e---e---e---e-----||-------|---7----
3-s-3-s-3-s-3-5-|-3-3---3-s-3-s-3-s-3-s-3-s-3-5-||-0---5/|-0------
--t---t---t-----|-----3---t---t---t---t---t-----||-------|--------


s s s+q   s s s s s s s s s s s s s s e   s s s s s s s s s s s
--------|---------r---r---r---r---r-----|---------r---r---r---r---
x-x-5--\|---------e---e---e---e---e-----|---------e---e---e---e---
--------|-3-3---3-s-3-s-3-s-3-s-3-s-3-5-|-3-3---3-s-3-s-3-s-3-s---
--------|-----3---t---t---t---t---t-----|-----3---t---t---t---t---


s s s e   h+Q e   H q   s s s s s s s s s s s s s s e   s s s s
--r-----|-------|-----|---------r---r---r---r---r-----|-----------
--e-----|-------|-----|---------e---e---e---e---e-----|-----------
3-s-3-5-|-0---5/|-0-5-|-3-3---3-s-3-s-3-s-3-s-3-s-3-5-|-3-3---3---
--t-----|-------|-----|-----3---t---t---t---t---t-----|-----3-----


s s s s s s s s s s e   q H   w    E e s q e e e   E e s Q s s
r---r---r---r---r-----|---r-|-r-||---9-7-9-7-----|----------------
e---e---e---e---e-----|---e-|-e-||-----------9-7-|-5---5-4-4-5----
s-3-s-3-s-3-s-3-s-3-5-|-0-s-|-s-||-7-------------|---5------------
t---t---t---t---t-----|---t-|-t-||---------------|----------------


s s   E e s Q e e   q+s s q+s s s s s s   e s e s Q q   q+s s Q
----|---------9---|---------------------|-------------|-----------
4---|-----------7\|-5-----5---4-5-4-----|-----------9\|-5-----4---
--5-|-7---7-------|-----5-----------5-6-|-7---7-------|-----5-----
----|---7---0-----|---------------------|---7---7-0---|-----------


s e s   E e s q e e e   q+s s Q s s s s   q+s s Q e e   q+s s Q
------|-----------9\--|-----------------|-------------|-----------
5-4---|-------------7-|-5-----4-5-4-----|---------7---|-----------
----5-|-7-7-----7-----|-----5-------3-4-|-5---0-5---5-|-3-----3---
------|-----7-0-------|-----------------|-------------|-----3-----


e e   q+s s Q e e   Q Q e e   w   w   w   H Q    s s s s s s s
----|-------------|---------|---|---|-r-|-r---||---------r---r----
----|-------------|---------|-3-|---|-e-|-e---||---------e---e----
0---|-5---0-5-0-5-|-3-2-0---|---|---|-s-|-s-5-||-3-3---3-s-3-s----
--3-|-------------|-------3-|---|-3-|-t-|-t---||-----3---t---t----


s s s s s s s e   s s s s s s s s s s s s s s e   h+Q e   h E E
--r---r---r-----|---------r---r---r---r---r-----|-------|---------
--e---e---e-----|---------e---e---e---e---e-----|-------|---7-5---
3-s-3-s-3-s-3-5-|-3-3---3-s-3-s-3-s-3-s-3-s-3-5-|-0---7\|-0-------
--t---t---t-----|-----3---t---t---t---t---t-----|-------|---------


e   s s s s s s s s s s s s s s e   s s s s s s s s s s s s s s
--|---------r---r---r---r---r-----|---------r---r---r---r---r-----
--|---------e---e---e---e---e-----|---------e---e---e---e---e-----
7\|-3-3---3-s-3-s-3-s-3-s-3-s-3-5-|-3-3---3-s-3-s-3-s-3-s-3-s-3---
--|-----3---t---t---t---t---t-----|-----3---t---t---t---t---t-----


e   h+Q e   h s e E e   s s s s s s s s s s s s s s e   s s s s
--|-------|-----------|---------r---r---r---r---r-----|-----------
--|-----7\|---7---5-4-|---------e---e---e---e---e-----|-----------
5-|-0-----|-0---7-----|-3-3---3-s-3-s-3-s-3-s-3-s-3-5-|-3-3---3---
--|-------|-----------|-----3---t---t---t---t---t-----|-----3-----


s s s s s s s s s s e   h+Q e   H q   s s s s s s s s s s s s s
r---r---r---r---r-----|-------|-----|---------r---r---r---r---r---
e---e---e---e---e-----|-------|-----|---------e---e---e---e---e---
s-3-s-3-s-3-s-3-s-3-5-|-0---7\|-0-5-|-3-3---3-s-3-s-3-s-3-s-3-s---
t---t---t---t---t-----|-------|-----|-----3---t---t---t---t---t---


s e   s s s s s s s s s s s s s s e   q H   w    E e s E e s e
----|---------r---r---r---r---r-----|---r-|-r-||---9-7-9-7-7------
----|---------e---e---e---e---e-----|---e-|-e-||-------------9----
3-5-|-3-3---3-s-3-s-3-s-3-s-3-s-3-5-|-0-s-|-s-||-7----------------
----|-----3---t---t---t---t---t-----|---t-|-t-||------------------


e   E e s Q s s s s   E e s Q s s s s   q+s s E s s s s s s s
--|-----------------|-----------------|-----------------------|---
7-|-5---5-4-5-4-----|---------7-9-7---|-5-----4-4-4-4-5-4-----|---
--|---5---------5-6-|-7-7-----------7-|-----5-------------5-6-|---
--|-----------------|-----7-0---------|-----------------------|---


Q q e e e   E e s Q s s s s   e s e s q e e e   q+s s Q s s s s
----9-7---|-----------------|---------9-------|-------------------
--------7\|-5---5-4-5-4-----|---9---9-------9\|-5-----4-5-4-------
7---------|---5---------5-6-|-7---5-------7---|-----5-------3-4---
--0-------|-----------------|-----------0-----|-------------------


  q+s s q e e e   Q Q e e   q+s s q e e e   Q Q e e   w   w   w
|---------------|---------|---------------|---------|---|---|-r---
|-----------7---|---------|---------------|---------|-3-|---|-e---
|-5---0-5-5---5-|-3-2-0---|-5---0-5-5-0-5-|-3-2-0---|---|---|-s---
|---------------|-------3-|---------------|-------3-|---|-3-|-t---


  H q   s s s s s s s s s s s s s s e   s s s s s s s s s s s s
|-r---|---------r---r---r---r---r-----|---------r---r---r---r-----
|-e---|---------e---e---e---e---e-----|---------e---e---e---e-----
|-s-5-|-3-3---3-s-3-s-3-s-3-s-3-s-3-0-|-3-3---3-s-3-s-3-s-3-s-3---
|-t---|-----3---t---t---t---t---t-----|-----3---t---t---t---t-----


s s e   s s s s s s s s s s s s s s e   s s s s s s s s s s s s
r-----|---------r---r---r---r---r-----|---------r---r---r---r-----
e-----|---------e---e---e---e---e-----|---------e---e---e---e-----
s-3-5-|-3-3---3-s-3-s-3-s-3-s-3-s-3-5-|-3-3---3-s-3-s-3-s-3-s-3---
t-----|-----3---t---t---t---t---t-----|-----3---t---t---t---t-----


s s e
r-----||---
e-----||---
s-3-5-||---
t-----||---



====================== PART II ===================================

Rush: Didacts and Narpets
>From the album Caress of Steel (Mercury Records)
Copyright 1975 Core Music Publishing
Music by Lee and Lifeson
Lyrics by Peart

Comments/corrections to Sean Jones 

Transcribed by Sean Jones


  Drum Solo    Drum starts       q e q Q   w   e q e q q
||---------|---"Wipeout" for---|---r---r-|-r-|-r---r---r----
||---------|----4 mm.----------|---e---e-|-e-|-e-5-e-3-e----
||---------|-------------------|-7-s-5-s-|-s-|-s---s---s----
||---------|-------------------|---t---t-|-t-|-t---t---t----

  w   e q e q q   w   q e q Q   w   e q e q q   h Q e   q H
|-r-|-r-------r-|-r-|---r---r-|-r-|-r---r---r-|-r-r---|---r-|-----
|-e-|-e-------e-|-e-|-5-e-3-e-|-e-|-e---e---e-|-e-e-5-|-3-e-|-----
|-s-|-s-7-7-5-s-|-s-|---s---s-|-s-|-s-7-s-5-s-|-s-s---|---s-|-----
|-t-|-t-------t-|-t-|---t---t-|-t-|-t---t---t-|-t-t---|---t-|-----


 9 mm      Q q      q e q e q   e q e q e e   q q e q e   w
-rest-|----r-r-|------r---r---|-r---r---r---|-r---r---r-|-r-||----
------|-5:-e-e-|-4:---e---e-3-|-e---e-5-e---|-e-7-e-3-e-|-e-||----
------|-8:-s-s-|-4:-7-s-5-s---|-s-3-s---s-5-|-s---s---s-|-s-||----
------|----t-t-|------t---t---|-t---t---t---|-t---t---t-|-t-||----

====================== PART III ==================================

Rush: No One at the Bridge
>From the album Caress of Steel (Mercury Records)
Copyright 1975 Core Music Publishing
Music by Lee and Lifeson
Lyrics by Peart

Comments/corrections to Sean Jones 

Transcribed by Sean Jones


    4 mm    W+  H+Q q e   H H   H H   W   Q Q Q Q     W   H+Q q
----rest--|---|-----r-9-|-7---|-----|---|---------||----|-----r---
12:-------|---|-----e---|---8-|-5---|---|---------||*---|-----e---
8-:-------|---|-----s---|-----|---5-|---|-3-2-----||*---|-----s---
----------|-0-|-----t---|-----|-----|-0-|-----3-2-||--0-|-0---t---


e   H H   H H     Q+q e q e e e e   q Q e q q e e   Q+q e Q s s
9-|-7---|------||-----------------|---------------|---------------
--|---8-|-5---*||-------7-7---7---|---------5-----|-------7-7-9---
--|-----|---5-*||-0---7-----7---7-|-3-3---3---3-2-|-0---7---------
--|-----|------||-----------------|-----3---------|---------------


q   q Q e e q q e   Q+q e e e e e e e   q Q e e e e e e e   Q+q
--|---------r-----|-------------------|-------------------|-------
7-|---------e-----|-------7-7-7-9-7-5-|-----------5-------|-------
--|-3-3---3-s-3-3-|-0---7-------------|-3-3---3-3---3-3-5-|-0-----
--|-----3---t-----|-------------------|-----3-------------|-------


e e e e+Q   h e e e e e e e e   e e e e e e e e e e e e     W+
------9-9-|-------------------|-------------------------||----|---
--7-9---7\|-3-3-3-3-3-3-3-3-3-|-3-6-6-6-6-6-6-6-3-3-3-3-||*---|---
7---------|-------------------|-------------------------||*---|---
----------|-------------------|-------------------------||--0-|---


H+Q q e   H H   H H     W   Q Q Q Q    W   H+Q q e   H H   H H
----r-9-|-7---|------||---|---------||---|-----r-9-|-7---|--------
----e---|---8-|-5---*||---|---------||---|-----e---|---8-|-5------
----s---|-----|---5-*||---|-3-2-----||---|-----s---|-----|---5----
----t---|-----|------||-0-|-----3-2-||-0-|-0---t---|-----|--------


  W   H+Q q e   H H   H e e e e e e    Q+q e q e e e e   q Q e
|---|-----r-9-|-7---|---------------||-----------------|----------
|---|-----e---|---8-|-5-------------||-------7-7-9-7-5-|----------
|---|-----s---|-----|---5-5-5-5-5-5-||-0---7-----------|-3-3------
|-0-|-0---t---|-----|---------------||-----------------|-----3----


e e Q e e   Q+q e e e e e e e   q Q e q q e e   Q+q e e e e e e
----r-----|-----------9---9---|---------------|---------9-7-6-----
----e-----|-------7-9---9---7\|---------------|-------7-------9---
3-3-s-3-2-|-0---7-------------|-3-3---3-3-3-3-|-0---7-------------
----t-----|-------------------|-----3---------|-------------------


e   q Q e q q e e   Q+q e e e e e e e   Q e e e e e e e e e   e
--|---------------|-------------------|---------------------|-----
7-|---------5-----|-------7-7-7-9-7-5-|-3-3-3-3-3-3-3-3-3-3-|-3---
--|-3-3---3---3-2-|-0---7-------------|---------------------|-----
--|-----3---------|-------------------|---------------------|-----


e e e e e e e e e e e   W+  W     Q e q H   W   Q e q e q e e e
----------------------|---|---||------r-r-|-r-|-----r---r---------
3-3-3-3-3-3-3-3-3-3-3-|---|---||*-5-4-e-e-|-e-|-5-4-e---e---------
----------------------|---|---||*-----s-s-|-s-|-----s-7-s-5-5-5---
----------------------|-0-|---||------t-t-|-t-|-----t---t---------


  q e Q q e e e e     Q e q e q Q   q e Q q e Q   Q e q e q q e
|------------------||-----r---r---|-------------|-----r---r-------
|-----------------*||-5-4-e---e---|-------------|-5-4-e---e-------
|-----7-----7-5---*||-----s-7-s-5-|-----7-----7-|-----s-7-s-5-7---
|-0-0---0-0-----7--||-----t---t---|-0-0---0-0---|-----t---t-------


  q e e e e q e e e e   Q e q H   W   Q Q Q Q   q e Q+H+  H+Q q
|---------------------|-----r-r-|-r-|-----7-9-|---------|-----r---
|---------------------|-5-4-e-e-|-e-|-5-4-----|---------|-----e---
|-----7-5-------7-5---|-----s-s-|-s-|---------|-7-7-7---|-----s---
|-0-0-----7-0-0-----7-|-----t-t-|-t-|---------|---------|-----t---


e   H H   H H   W+  H+Q q e   H H   H H   W   Q Q Q Q   H+Q q e
9-|-7---|-----|---|-----r-9-|-7---|-----|---|---------|-----r-----
--|---8-|-5---|---|-----e---|---8-|-5---|---|---------|-----e-----
--|-----|---5-|---|-----s---|-----|---5-|---|-3-2-----|-----s-----
--|-----|-----|-0-|-----t---|-----|-----|-0-|-----3-2-|-0---t-0---


  H+Q e e e   H H   H h e e   H+Q q e   H+Q e e e   H H   H e s
|-----r---9-|-7---|---------|-----r---|-----r---9-|-7---|---------
|-----e-9---|---8-|-5-------|-----e---|-----e-9---|---8-|-5-------
|-----s-----|-----|---5-0-5-|-----s---|-----s-----|-----|---5-5---
|-0---t-----|-----|---------|-0---t-0-|-0---t-----|-----|---------


s e e e e    h e e q e e e e   q Q e e e q q   Q+q e e e e e e
----------||-----------------|---------------|---------9-7-6------
----------||-------7-7-9-7-5-|---5-------5---|-------7-------9----
5-5-5-5-5-||-0-0-7-----------|-3-----3-3---3-|-0---7--------------
----------||-----------------|-----3---------|--------------------


e   q Q e e e e e e e   q Q e e e e q e   q Q e e e e e e e   Q+
--|-------------------|---------9-7-7---|-------------------|-----
7-|---------5-7-5-7-7-|-------7-------7\|-----------5-5-----|-----
--|-3-3---3-----------|-0-0-7-----------|-3-3---3-3-----3-3-|-0---
--|-----3-------------|-----------------|-----3-------------|-----


q e e e e e e e   h e e e e e e e e   e e e e e e e e e e e e
------9-7-6-----|-------------------|-------------------------|---
----7-------9-7-|-------------------|-------------------------|---
--7-------------|-8-8-8-8-8-8-8-8-8-|-8-8-8-8-8-8-8-8-8-8-8-8-|---
----------------|-------------------|-------------------------|---


W+  W
--|---||---
--|---||---
7-|---||---
--|---||---



====================== PART IV ===================================

Rush: Panacea
>From the album Caress of Steel (Mercury Records)
Copyright 1975 Core Music Publishing
Music by Lee
Lyrics by Peart

Comments/corrections to Sean Jones 

Transcribed by Sean Jones


   22 mm.    H q     Q q e q   Q q e q   Q q e q   Q q e
----rest---|-r---||----9-7-6-|---9-7-6-|---------|---------
4:---------|-e-2/||*-7-------|-7-------|---5-4-2-|---5-4---
4:---------|-s---||*---------|---------|-3-------|-3-------
-----------|-t---||----------|---------|---------|---------


q     H q   w   e q e Q   w   4 mm.     Q e h   Q e h     Q e h
---||-----|---|---7-----|---|---------|-------|-------||----------
2-*||-----|-5-|-5-----7-|---|-rest----|-------|-------||*---------
--*||-3-3/|---|-----5---|-0-|---------|-5-5-5-|-5-5-5-||*-5-5-5---
---||-----|---|---------|---|---------|-------|-------||----------


  Q e h   Q e h   Q e h   Q e h   Q e h   h h   e e e e h     Q
|-------|-------|-------|-------|-------|-----|------------||-----
|-------|-------|-------|-5-5-5-|-5-5-5-|-5---|-5-4-------*||-7---
|-5-5-5-|-3-3-3-|-3-3-3-|-------|-------|---0-|-----7-6-5-*||-----
|-------|-------|-------|-------|-------|-----|------------||-----


q e q   Q Q q   Q q e q   Q q e q   Q Q q     q e q e q   q e q
------|-------|---------|---------|-------||------9-7-6-|-----9---
7---7-|-------|-3-3---3-|---------|-------||*-7-7-------|-7-7-----
--7---|-3-3-3-|-----3---|-7-7-7-7-|-7-7-7/||*-----------|---------
------|-------|---------|---------|-------||------------|---------


e q   q e q e q   q e q e q     w   w   w   w
7-6-|-----------|------------||---|-r-|-r-|---||---
----|-----5-4-2-|-----5-4-2-*||-7-|-e-|-e-|-7-||---
----|-3-3-------|-3-3-------*||---|-s-|-s-|-0-||---
----|-----------|------------||---|-t-|-t-|---||---


====================== PART V ====================================


Rush: Bacchus Plateau
>From the album Caress of Steel (Mercury Records)
Copyright 1975 Core Music Publishing
Music by Lee
Lyrics by Peart

Comments/corrections to Sean Jones 

Transcribed by Sean Jones


  3 mm.   h Q  e
--rest--|-r-r--12\-|---
--------|-e-e------|---
--------|-s-s------|---
--------|-t-t------|---

    Q e+h   Q e+h   Q e+h   Q q q e  3x Q e+h   Q e+h   Q e+h
||--------|-------|-------|----------||-------|-------|---------
||*---7---|---7---|-------|---------*||---7---|---7---|---------
||*-7-----|-7-----|---5---|---5-4-5-*||-7-----|-7-----|---5-----
||--------|-------|-5-----|-5--------||-------|-------|-5-------


  Q q q e   w+  w    q q q e e+  e q e q e e   q e e q e e
|---7-6-6\|---|---||---r---r---|-------------|-------------|----
|---------|-0-|---||---e-5-e---|-----------4-|-5---5-4-4---|----
|---------|---|---||-5-s---s/7-|---5-4-5-7---|---5-------5-|----
|-5-------|---|---||---t---t---|-------------|-------------|----


q q e e q   q q q e e+  e q e q e e   q e e e s s e e   w   q e
--r-7---r-|---r---r---|-------------|-----------------|---|-7-----
--e---7-e-|---e-5-e---|-----------4-|-5---5-4-4-5-4---|---|---7---
7-s-----s-|-5-s---s/7-|---5-4-5-7---|---5-----------5-|---|-------
--t-----t-|---t---t---|-------------|-----------------|-0-|-------


e q e e+  e q e e e e e   q e e q e e   q q e e q   q q q e e+
7-6---9-|---7-6-7-6-----|-------------|---r-7---r-|---r-7-r-9-|---
----7---|-----------9-7-|-5---5-4-4---|---e---7-e-|---e---e---|---
--------|---------------|---5-------5-|-7-s-----s-|-5-s---s---|---
--------|---------------|-------------|---t-----t-|---t---t---|---


e q e e e e e   q e e e e e e   e q e e e e e   H E s    e  q
--7-6-7-6-----|---------------|-r---r-----r---|---r----|-11-9-----
----------9-7-|-5---5-4-5-4---|-e---e-5-5-e---|---e-12-|----------
--------------|---5---------5-|-s-7\s-----s-5-|-5-s----|----------
--------------|---------------|-t---t-----t---|---t----|----------


q  e  q      Q e+h   Q e+h   Q e+h   Q q q e     Q e+h   Q e+h
---------||--------|-------|-------|----------||-------|----------
12-11----||*---7---|---7---|-------|---------*||---7---|---7------
------12\||*-7-----|-7-----|---5---|---5-4-5-*||-7-----|-7--------
---------||--------|-------|-5-----|-5--------||-------|----------


  Q e+h   Q q q e   w+  w    q q q e e+  e q e q e e   q e e e e
|-------|---7-6-6\|---|---||---r---r---|-------------|------------
|-------|---------|-0-|---||---e-5-e---|-----------4-|-5---5-4-5--
|---5---|---------|---|---||-5-s---s/7-|---5-4-5-7---|---5--------
|-5-----|-5-------|---|---||---t---t---|-------------|------------


e e   q q e e q   q q q e e+  e q e q e e   q e e e s s e e   w
----|---r-7---r-|---r---r---|-------------|-----------------|-----
4---|---e---7-e-|---e-5-e---|-----------4-|-5---5-4-4-5-4---|-----
--5-|-7-s-----s-|-5-s---s/7-|---5-4-5-7---|---5-----------5-|-----
----|---t-----t-|---t---t---|-------------|-----------------|-0---


  q e e q e e+  e q e e e e e   q e e q e e   q q e e q   q e e
|-7---7-6---9-|---7-6-7-6-----|-------------|---r-7---r-|-7---7---
|---7-----7---|-----------9-7-|-5---5-4-4---|---e---7-e-|---7-----
|-------------|---------------|---5-------5-|-7-s-----s-|---------
|-------------|---------------|-------------|---t-----t-|---------


q e e+  e q e e e e e   q e e e e e e   e q e e e e e   H E s
6---9-|---7-6-7-6-----|---------------|-r---r-----r---|---r-------
--7---|-----------9-7-|-5---5-4-5-4---|-e---e-5-5-e---|---e-12----
------|---------------|---5---------5-|-s-7\s-----s-5-|-5-s-------
------|---------------|---------------|-t---t-----t---|---t-------


  e  e e  e  s^s^ s^e  s^ s^ s^ e      Q e+h   Q e+h   Q e+h
|-11-9-12-11-9-11-9----------------||--------|-------|-------|----
|-------------------12-11-12-11----||*---7---|---7---|-------|----
|-------------------------------12\||*-7-----|-7-----|---5---|----
|----------------------------------||--------|-------|-5-----|----


Q q q e   Q e+h   q e e+h   Q e+h   Q q q e   Q e+h   Q e+h   Q
--------|-------|---------|-------|---------|-------|-------|-----
--------|---7---|-----7---|-------|---------|---7---|---7---|-----
--5-4-5-|-7-----|-7-7-----|---5---|---5-4-5-|-7-----|-7-----|-----
5-------|-------|---------|-5-----|-5-------|-------|-------|-5---


e+h   Q q q e   Q e+h   E s e e+h   Q e+h   E s e q q e   Q e+h
----|---------|-------|-----------|-------|-------------|---------
----|---------|---7---|-----6-7---|-------|-------------|---7-----
5---|---5-4-5-|-7-----|-7-7-------|---5---|-----4-5-4-5-|-7-------
----|-5-------|-------|-----------|-5-----|-5-5---------|---------


  E s e e+h   Q e+h   Q q q e
|-----------|-------|---------||---
|-----6-7---|-------|---------||---
|-7-7-------|---5---|---5-4-5-||---
|-----------|-5-----|-5-------||---


====================== PART VI ===================================


Rush: The Fountain
From the album Caress of Steel (Mercury Records)
Copyright 1975 Core Music Publishing
Music by Lee and Lifeson
Lyrics by Peart

Comments/corrections to Sean Jones 

Transcribed by Sean Jones


 w   H q   s s s s s s s s s s    s s s s e
-r-|-r---|---------r---r---r------r---r-----|---
-e-|-e---|---------e---e---e------e---e-----|---
-s-|-s-5-|-3-3---3-s-3-s-3-s-3----s-3-s-3-5-|---
-t-|-t---|-----3---t---t---t------t---t-----|---


  s s s s s s s s s s s s s s e   h+Q e   h E E e   s
|---------r---r---r---r---r-----|-------|---------|-----
|---------e---e---e---e---e-----|-------|---7-5---|-----
|-3-3---3-s-3-s-3-s-3-s-3-s-3-5-|-0---5\|-0-----7-|-3---
|-----3---t---t---t---t---t-----|-------|---------|-----


s s s s s s s s s s s s s e   s s s s s s s s s s s s s s e   h+
------r---r---r---r---r-----|---------r---r---r---r---r-----|-----
------e---e---e---e---e-----|---------e---e---e---e---e-----|-----
3---3-s-3-s-3-s-3-s-3-s-3-5-|-3-3---3-s-3-s-3-s-3-s-3-s-3-5-|-0---
--3---t---t---t---t---t-----|-----3---t---t---t---t---t-----|-----


Q e   h s s s s q   s s s s s s s s s s s s s s e   s s s s s s
----|-----------r-|---------r---r---r---r---r-----|---------r-----
----|---7-----5-e-|---------e---e---e---e---e-----|---------e-----
--5\|-0---7-7---s-|-3-3---3-s-3-s-3-s-3-s-3-s-3-5-|-3-3---3-s-3---
----|-----------t-|-----3---t---t---t---t---t-----|-----3---t-----


s s s s s s s s e   h+Q e   H q   s s s s s s s s s s s s
r---r---r---r-----|-------|-----|---------r---r---r---r-----
e---e---e---e-----|-------|-----|---------e---e---e---e-----
s-3-s-3-s-3-s-3-5-|-0---5\|-0-5-|-3-3---3-s-3-s-3-s-3-s-3---
t---t---t---t-----|-------|-----|-----3---t---t---t---t-----


s s e   s s s s s s s s s s s s s s e   q H   w    E e s q s s
r-----|---------r---r---r---r---r-----|---r-|-r-||---9-7-9-7-r----
e-----|---------e---e---e---e---e-----|---e-|-e-||-----------e----
s-3-5-|-3-3---3-s-3-s-3-s-3-s-3-s-3-5-|-0-s-|-s-||-7---------s----
t-----|-----3---t---t---t---t---t-----|---t-|-t-||-----------t----


s e e   q s s Q s s s s   E e s Q e e   q+s s Q s s s s   E s s
7-----|-----------------|-------------|-----------------|---9-9---
--9-7-|-5---5-4-5-4-----|---9-------7-|-5-----4-5-4-----|---------
------|---5---------5-6-|-7---7---7---|-----5-------5-6-|-7-------
------|-----------------|-------0-----|-----------------|---------


s E s s s e e   E e s q+s s e s s   E e s q e e e   q+s s Q s s
7-9-7-r-7-----|-------------------|---------------|---------------
------e---9-7-|-5---5-4---4-5-4---|---9---------7-|-5-----4-5-4---
------s-------|---5-------------5-|-7---7---7-----|-----5---------
------t-------|-------------------|-------0---7---|---------------


s s   q+s s q e e e   q+s s Q e e   E e s q e e e   Q e q e e
----|---------------|-------------|---------------|-----------|---
----|---------------|-------------|---------------|-----------|---
3-4-|-5---0-5-5-0-5-|-3-----2-0---|-5-5-0-5-5-0-5-|-3-3-2-0---|---
----|---------------|-----3-----3-|---------------|---------3-|---


w   w   w   H q   s s s s s s s s s s s s s s e   s s s s s s s
--|---|-r-|-r---|---------r---r---r---r---r-----|---------r---r---
--|---|-e-|-e---|---------e---e---e---e---e-----|---------e---e---
--|---|-s-|-s-5-|-3-3---3-s-3-s-3-s-3-s-3-s-3-5-|-3-3---3-s-3-s---
1-|-3-|-t-|-t---|-----3---t---t---t---t---t-----|-----3---t---t---


s s s s s s s e   h+Q e   h E E e   s s s s s s s s s s s s s s
--r---r---r-----|-------|---------|---------r---r---r---r---r-----
--e---e---e-----|-------|---7-5---|---------e---e---e---e---e-----
3-s-3-s-3-s-3-5-|-0---5-|-0-----7-|-3-3---3-s-3-s-3-s-3-s-3-s-3---
--t---t---t-----|-------|---------|-----3---t---t---t---t---t-----


e   s s s s s s s s s s s s s s e   h+Q e   h s s s s q   s s s
--|---------r---r---r---r---r-----|-------|-----------r-|---------
--|---------e---e---e---e---e-----|-------|---7-5---5-e-|---------
5-|-3-3---3-s-3-s-3-s-3-s-3-s-3-5-|-0---5\|-0-----7---s-|-3-3-----
--|-----3---t---t---t---t---t-----|-------|-----------t-|-----3---


s s s s s s s s s s s e   s s s s s s s s s s s s s s e   h+Q e
--r---r---r---r---r-----|---------r---r---r---r---r-----|---------
--e---e---e---e---e-----|---------e---e---e---e---e-----|---------
3-s-3-s-3-s-3-s-3-s-3-5-|-3-3---3-s-3-s-3-s-3-s-3-s-3-5-|-0-0-5---
--t---t---t---t---t-----|-----3---t---t---t---t---t-----|---------


   H s E   s s s s s s s s s s s s s s e   s s s s s s s s s s
-|-------|---------r---r---r---r---r-----|---------r---r---r------
-|-------|---------e---e---e---e---e-----|---------e---e---e------
\|-0-5-5-|-3-3---3-s-3-s-3-s-3-s-3-s-3-5-|-3-3---3-s-3-s-3-s-3----
-|-------|-----3---t---t---t---t---t-----|-----3---t---t---t------


s s s s e   q H   w   E e s E s s s e e   q s s Q s s s s   E e
r---r-----|---r-|-r-|---9-7-9-7-r-7-----|-----------------|-------
e---e-----|---e-|-e-|-----------e---9-7-|-5---5-4-5-4-----|-------
s-3-s-3-5-|-0-s-|-s-|-7---------s-------|---5---------5-6-|-7-----
t---t-----|---t-|-t-|-----------t-------|-----------------|---7---


s Q e e   q+s s Q s s s s   E s s s E e s e e   E s s s q+s s e
--------|-----------------|---9-9-7-9-7-7-----|-------------------
------7\|-5-----4-5-4-----|---------------9-7-|-5-5---5-4---4-5---
7---7---|-----5-------5-6-|-7-----------------|-----5-------------
--0-----|-----------------|-------------------|-------------------


s s   E e s q e e e   q+s s Q s s s s   q+s s q e e e   q+s s Q
----|---------------|-----------------|---------------|-----------
4---|-------------7\|-5-----4-5-4-----|---------------|-----------
--5-|-7---7---7-----|-----5-------3-4-|-5---0-5-5-0-5-|-3-----2---
----|---7---0---7---|-----------------|---------------|-----3-----


e e   q+s s q e e e   Q Q e e   w   w   w   H q     s s s s s s
----|---------------|---------|---|---|-r-|-r---||----------r-----
----|---------------|---------|-3-|---|-e-|-e---||*---------e-----
0---|-5---0-5-5-0-5-|-3-2-0---|---|---|-s-|-s-5-||*-3-3---3-s-3---
--3-|---------------|-------3-|---|-0-|-t-|-t---||------3---t-----


s s s s s s s s e   s s s s s s s s s s s s s s e  3x
r---r---r---r-----|---------r---r---r---r---r------||-------------
e---e---e---e-----|---------e---e---e---e---e-----*||-------------
s-3-s-3-s-3-s-3-5-|-3-3---3-s-3-s-3-s-3-s-3-s-3-5-*||-------------
t---t---t---t-----|-----3---t---t---t---t---t------||-------------

	   Swell into note
17 mm.      w
-rest---|-------||--------------------------
--------|-------||--------------------------
--------|---2---||--------------------------
--------|-------||--------------------------




==================================================================
==                    TABLATURE EXPLANATION                     ==
==================================================================

----------                ----------                ----t---
----5h8--- Hammeron       ----(8)--- Ghost          ----6--- Tap
----------                ---------- Note           --------
----5p8--- Pulloff        ----------                --------

----------                ----------                -----p--
----5/8--- Slide Up       -----x---- Dead           -----7-- Pop
----------                ---------- Note           --s-----
----5\8--- Slide Down     ----------                --5----- Slap

----------                ||------|| Repeat         --------
----5~~~-- Vibrato        ||*----*||                ---5^--- Bend
----------                ||*----*||                --------
----------                ||------||                --------

----------                ----------                --------
-4:------- Time           ----------                --------
-4:------- Signature      ----------                --------
----------                ----------                --------

Rhythm:
  w = whole note            W = dotted whole
  h = half note             H = dotted half
  q = quarter note          Q = dotted quarter
  e = eighth note           E = dotted eighth
  s = sixteenth note        S = dotted sixteenth
  t = 32nd note             T = dotted 32nd
  x = 64th note             X = dotted 64th
  ^ = triplet

==================================================================
==         Created with a demo version of BUCKET O' TAB         ==
==           tablature creation software for Windows            ==
==               For more info email gse@his.com                ==
==================================================================
  development and support by
dmitry ivanov