rock
 
|tablatures   |lyrics   |discussion forums   |more tabs @ XGuitar.com

Rush tabs

Territories guitar tab

Rush: Territories
From the album Power Windows (Mercury Records)
Copyright 1985 Core Music Publishing
Music by Lee and Lifeson
Lyrics by Peart

Comments/corrections to Rich Soto 

Transcribed by: Richard J. Soto
Email: hrhkinglerxst@home.com

------------------------------------------------------------------------------
------------------------------------------------------------------------------
-------5b7r--------0----2----5/7--9vvvvvv--5-7-5b7r\2p0--2--------5/7\5vvvvvv-
------------------------------------------------------------------------------
------------------------------------------------------------------------------
------------------------------------------------------------------------------
 Vol.swell w/delay+effect          lightly

------------------------------------------------------------------------------
------------------------------------------------------------------------------
-9b11rvvvvvv----------14b16r-12--9\7-5---7b9rvvv---5--------12----------7-7-7-
------------------------------------------------------------------------------
------------------------------------------------------------------------------
------------------------------------------------------------------------------


---------------------------------------------------------------|--------------
---------------------------------------------------------------|--------------
-7-7-7-9-9-9-9/12-12-12--9-12---11b14r-9-7vvvv--4--2--4/7-vvvv-|--------------
---------------------------------------------------------------|--------------
---------------------------------------------------------------|--------------
---------------------------------------------------------------|--------------


--------------------------------|----------------------------------------|----
-5---8---5--5--7----------------|---------5---8---5--5--7----------------|----
------------------5---7---------|--------------------------5---7---------|----
-------------------------5h7p0--|---------------------------------5h7p0--|----
--------------------------------|----------------------------------------|----
--------------------------------|----------------------------------------|----
 Play 24x                         Riff-A Play 3x(*NOTE* All notes=A.H.)

--------------------------|---------------------------------------------------
--5---8---5--5--7---------|---------------------------------------------------
-------------------5---7v-|---------------------------------------------------
--------------------------|---------------------------------------------------
--------------------------|---------------------------------------------------
--------------------------|---------------------------------------------------
 (A.H.-------------------)

----------------------------------------------------------------------------|-
----------------------------------------------------------------------------|-
------------5---7---5-5---2----------------5---7---5--5---10----------------|-
------------5---7---5-5---2----------------5---7---5--5---10----------------|-
------------3---5---3-3---0----------------3---5---3--3----8----------------|-
----------------------------------------------------------------------------|-
 Rhy.1 Play 3x  .     .                        .      .

-------------------3-3--3-3--3-3--0-vvv|------2---------2--------------|------
-------------------3-3--3-3--3-3--3-vvv|-5----3----5----3----5----0----|------
-5---7---5-5---2---2-2--2-2------------|-5----2----5----2----5----4----|------
-5---7---5-5---2-----------------------|-5----0----5----0----5----5----|------
-3---5---3-3---0-----------------------|-3---------3---------3----5----|------
---------------------------------------|--------------------------3----|------
     .     .       u d  u d  u d  d Bar  Soft Strums

----12-10-10----------10-12------12-10-10----------10-12---|----------------|-
-------------13p10------------------------13p10------------|----------------|-
-12----------------12---------12----------------12---------|----------------|-
----------------------------0----------------------------0-|----------------|-
-----------------------------------------------------------|----------------|-
-----------------------------------------------------------|----------------|-
 Play 10x                                                    Play Riff-A 3x

-----------------------|--------------|---------------------------------------
--5---8---5--5--7------|--------------|---------------------------------------
------------------5--7-|--------------|-5---7---5-5---2----------------5---7--
-----------------------|--------------|-5---7---5-5---2----------------5---7--
-----------------------|--------------|-3---5---3-3---0----------------3---5--
-----------------------|--------------|---------------------------------------
 (A.H.----------------)  Play Rhy.1 2x      .     .                        .

-------------------------------------------------------0--vvvvvv-|------------
------------------------------------------------------17--vvvvvv-|------------
--5-5---10------10--9--------------vvvvv-5---7---5-5--16--vvvvvv-|------------
--5-5---10------10--9--------------vvvvv-5---7---5-5--14--vvvvvv-|------------
--3-3----8-------8--7--------------vvvvv-3---5---3-3---0--vvvvvv-|------------
-----------------------------------------------------------------|------------
    .            .  Bar dwn,return,&vBar     .     .       Bar

-----------------------------------------|--------|---------------------------
-5----0----5----0----5----0----5----0----|--------|---------------------------
-5----4----5----4----5----4----5----4----|--------|---------------------------
-5----5----5----5----5----5----5----5----|--------|---------------------------
-3----5----3----5----3----5----3----5----|--------|---------------------------
------3---------3---------3---------3----|--------|---------------------------
 Soft Strums                               Synths

-12---12-12-12-12--10-10-10-10---10--10--|------------------------------------
-10---10-10-10-10--10-10-10-10---13--10--|------------------------------------
-12---12-12-12-12--12-12-12-12---12--12--|-5---7---5-5---10-------------------
-----------------------------------------|-5---7---5-5---10-------------------
-----------------------------------------|-3---5---3-3----8-------------------
-----------------------------------------|------------------------------------
 Play 18x                             .        .     .

------------------------------------------------------------------------------
------------------5-5--5--5vvvvvv---------------------------------------------
-5---7---5-5------6-6--6--6vvvvvv-5---7---5-5---10----------------5---7---5-5-
-5---7---5-5---7--7-7--7--7vvvvvv-5---7---5-5---10----------------5---7---5-5-
-3---5---3-3---7--7-7--7--7vvvvvv-3---5---3-3----8----------------3---5---3-3-
---------------5--------------------------------------------------------------
     .     .      d u  d  d           .     .                         .     .

---5------5-5-5-5\-|----------|-----------------------------------------------
---5------5-5-5-5\-|----------|-----------------------------------------------
---6------6-6-6-6\-|----------|-----------------------------------------------
---7------7-7-7-7\-|----------|-----------------------------------------------
---7------7-7-7-7\-|----------|-----------------------------------------------
---5------5-5-5-5\-|----------|-----------------------------------------------
                     No guitar

-4-4-4--4-4-4--5-4-5-4------4-4-4--5-4-5----4-4-4--4-4------------------------
-5-5-5--5-5-5--5-5-5-5------5-5-5--5-5-5----5-5-5--5-5---7^-7^----------------
-4-4-4--4-4-4--4-4-4-4------4-4-4--4-4-4----4-4-4--4-4---7^-------------------
------------------------------------------------------------------------------
------------------------------------------------------------------------------
------------------------------------------------------------------------------
 Solo   . . .  . . . .      . . .  . . .           . .   H  Bar down    back

-16-16-16--16-16---17-16-17-16--16-16-16-16-16-16-16-16-17vvvvv----16-16-16---
-17-17-17--17-17---17-17-17-17--17-17-17-17-17-17-17-17-17vvvvv----17-17-17---
-16-16-16--16-16---16-16-16-16--16-16-16-16-16-16-16-16-16vvvvv----16-16-16---
------------------------------------------------------------------------------
------------------------------------------------------------------------------
------------------------------------------------------------------------------
            .  .    .  .  .  .   x  x  x  x  x  x  x  x   Bar

-16-16--14---14-14vvvvvvvvvv-|----------------------------------------------|-
-17-17--15---15-15vvvvvvvvvv-|-----------6-9--vvvvvv------7-----10--vvvvvvv-|-
-16-16--14---14-14vvvvvvvvvv-|-6-----6-8--------------7-----9-7-------------|-
-----------------------------|-6---6------------------7---------------------|-
-----------------------------|-4----------------------5---------------------|-
-----------------------------|----------------------------------------------|-
  .  .             Bar

--------------------------------------------------|---------------------------
--------------------------------------------------|---------------------------
-----5--------------------------------------------|---------------------------
-----5--------------------------------------------|---------------------------
-----3--------------------------------------------|---------------------------
--------------------------------------------------|---------------------------
 Played with lowest Bass note    Repeat 3x w/fade
  development and support by
dmitry ivanov