rock
 
|tablatures   |lyrics   |discussion forums   |more tabs @ XGuitar.com

Rush tabs

Tai Shan guitar tab

Rush: Tai Shan
From the album Hold Your Fire (Mercury Records)
Copyright 1987 Core Music Publishing
Music by Lee and Lifeson
Lyrics by Peart

Comments/corrections to Rich Soto 

Transcribed by: Richard J. Soto
Email: lerxst@zeus.jersey.net

Corrected & updated on March 10, 1999.

This song has a great Asian/Far Eastern/Oriental sound that proves that
H.R.H. King Lerxst is a musically-creative Master.  Gotta love that
jangly-sound!

-----0-------0-------0-------0-------0-------0-------0-------0---|------------
---0---0---0---0---0---0---0---0---0---0---0---0---0---0---0---0-|------------
-------------------------6-----------------------6-------8-------|------------
-----------------6---------------8-------9-----------------------|------------
-7-------9-------------------------------------------------------|------------
-----------------------------------------------------------------|------------


-----0-------0-------0-------0-------0-------0-------0-||---------------------
---0---0---0---0---0---0---0---0---0---0---0---0---0---||---------------------
-------------------------6-----------------------6-----||---------------------
-----------------6---------------8-------9-------------||---------------------
-7-------9---------------------------------------------||---------------------
-------------------------------------------------------||---------------------


-----2-----2-2---|-----2-----2-2---||-----------------------------------------
---2---2-------2-|---2---2---------||-----------------------------------------
-----------------|---------------4-||-----------------------------------------
-4---------------|-4---------------||-----------------------------------------
-----------------|-----------------||-----------------------------------------
-----------------|-----------------||-----------------------------------------


------------------------------------------------------------------|-----------
-0---2---4---0---4---7-------7---9---0---9---12-------12---14vvvvv|-----------
------------------------------------------------------------------|-----------
------------------------------------------------------------------|-----------
------------------------------------------------------------------|-----------
------------------------------------------------------------------|-----------


------------------------------------------------------------------|-----------
-0-0-2---4---0-0-4---7-------7---9---0-0-9---12-------12---14vvvvv|-----------
------------------------------------------------------------------|-----------
------------------------------------------------------------------|-----------
------------------------------------------------------------------|-----------
------------------------------------------------------------------|-----------
 Play 3 x

-----------------------------------------|------------------------------------
----------9---11-11---12------11---11-11-|------------------------------------
-9---11----------------------------------|------------------------------------
-----------------------------------------|------------------------------------
-----------------------------------------|------------------------------------
-----------------------------------------|------------------------------------
 Riff-A (Play  7x)

-----------------------------------------||-----------------------------------
----------9---11-11---12------11---11----||-----------------------------------
-9---11----------------------------------||-----------------------------------
-----------------------------------------||-----------------------------------
-----------------------------------------||-----------------------------------
-----------------------------------------||-----------------------------------


-----2-------2---|-----2-------------2-----------|-----2-------2---||---------
---2---2---2---2-|---2---2---------2-------------|---2---2---2---2-||---------
-----------------|-------------------------------|-----------------||---------
-4-------4-------|-4-------------4---------------|-4-------4-------||---------
-----------------|-------------------------------|-----------------||---------
-----------------|-------------------------------|-----------------||---------


------------------------------------------------------------------|-----------
-0-0-2-2-4-0-0-0-4-4-7-0-0-0-7-7-9-0-0-0-9---12---0---12---14vvvvv|-----------
------------------------------------------------------------------|-----------
------------------------------------------------------------------|-----------
------------------------------------------------------------------|-----------
------------------------------------------------------------------|-----------
 Riff-B

------------------------------------------------------------------|-----------
-0-0-2-2-4-0-0-0-4-4-7-0-0-0-7-7-9-0-0-0-9---12---0---14---16vvvvv|-----------
------------------------------------------------------------------|-----------
------------------------------------------------------------------|-----------
------------------------------------------------------------------|-----------
------------------------------------------------------------------|-----------
 Riff- C

------------|-----------|--------------|------------------------------------|-
------------|-----------|--------------|----------9---11-11---12------11----|-
------------|-----------|--------------|-9---11-----------------------------|-
------------|-----------|--------------|------------------------------------|-
------------|-----------|--------------|------------------------------------|-
------------|-----------|--------------|------------------------------------|-
 Play Riff-B Play Riff-C Play Riff-A 7x

-------------------------|------------|------------|------------|-------------
-------------------------|------------|------------|------------|-------------
-------------------------|------------|------------|------------|-------------
-------------------------|------------|------------|------------|-------------
-------------------------|------------|------------|------------|-------------
-------------------------|------------|------------|------------|-------------
 Begin Fade & Play Riff-B  Play Riff-C  Play Riff-B  Play Riff-C

----------------------|-------------------------------------------------------
----------------------|-------------------------------------------------------
----------------------|-------------------------------------------------------
----------------------|-------------------------------------------------------
----------------------|-------------------------------------------------------
----------------------|-------------------------------------------------------
 A few more notes/End


#-----------------------------------------------------------------------------#
#-- File created with Instab - http://www.pconline.com/~smcarey/instab.html --#
#-----------------------------------------------------------------------------#
  development and support by
dmitry ivanov