rock
 
|tablatures   |lyrics   |discussion forums   |more tabs @ XGuitar.com

Rush tabs

Something for Nothing guitar tab

Song: Something for Nothing
Artist: Rush

Intro: Guitar 1- Riff 1a
      Am       G(no 3rd)      D                E              G(no 3rd)   Am
--------0----------3-----------2-------------------0-----------3--------0------------
----------1----------3-----------3-------------------0------------3--------1---------
-----2------2----------0-----------2------------1------1-----------0---------2-------
---2----------0---------------(0)-----0-------2-----------2----------------------2---
-0----------------------------------------------------------------------(0)----------
------------------(3)-----------------------0-----------------(3)-------------------repeatÖ

Guitar 2 comes in on 3rd time, listen to the song to hear where these notes are placed:
-10---------14-------------------
-----8----------15-----12--------
----------------------------12---
---------------------------------
---------------------------------
---------------------------------

Riff 2a
E                        G (no 3rd)
--------0----------------3-------------
----------0----------------3-----------
-----1-----------------0-----0---------
---2-----------------0---------0-------
----------------------------------------
-0------------0-2-3--------------------

Riff 2b
Am-Am-Am-D-Am-D-Am-Am

Repeat Riff 2a and Riff 2b

Bridge
Riff 3
Am-Am-C-D-E-E-D-C-G(no 3rd)-C
Repeat

Riff 4
   E                  G(no 3rd)
 -----0--------------3-----------------
------0--------------3-----------------
------1--------------0-----------------
---2--------------0--------------------
----------------------------------------
-0--------0-2-3------------------------  Riff 2b

Repeat Riff 4

Riff 5
Am-Am-Am-D-Am-D-Am-Am-Am ---Riff 2b

Chorus
Riff 6
 D   C  D
-2--0--2------------------------------
-3--1--3------------------------------
-2--0--2------------------------------
-0--2--0------------------------------
----3-------0-2-3-2----2----0---------
---------------------3----3-----------

D   C  D
-2--0--2------------------------------
-3--1--3------------------------------
-2--0--2------------------------------
-0--2--0------------------------------
----3-------0-2-3-2----0--------------
---------------------3----------------


D   C  D
-2--0--2------------------------------
-3--1--3------------------------------
-2--0--2------------------------------
-0--2--0------------------------------
----3--------0-2-3-2----2----0---------
---------------------3----3------------


D-C-D Am-G(no3rd)-Am

 I didnít tab out the lead but hereís the rhythm progression that goes under it.

 Riff 3 (2xs)- Riff 4- Riff 2b- Riff 4- Riff 5- Riff 2b

Riff 6 (Pick slide)

2nd Bridge
Riff 7a
Am-G-D-E-G(no 3rd)-Am

Riff 7b
Am-G-D-E-E-G(no 3rd)-Am

Riff 7a (2xs)

Riff 8
           E             G(no 3rd)
------------0-------------3----------
------------0-------------3----------
------------1-------------0----------
------------2----------0-------------
---------2--2------------------------
-3-2-0----------0-2-3-----------------

Riff 2b

Repeat Riff 8- Riff 5- Riff 2b

Go back to Chorus

 Thatís all I have right now. Hope itís useful.
 Tabbed by: Citysburning
  development and support by
dmitry ivanov