rock
 
|tablatures   |lyrics   |discussion forums   |more tabs @ XGuitar.com

Rush tabs

Scars guitar tab

SCARS
                               As recorded by Rush
                          (From the 1989 Album PRESTO)

Words by Peart Music by Lee/Lifeson
Transcribed by Keith Nelson - ob1gynob@hotmail.com
    From the Rush Tablature Project - www.cygnusproductions.com/rtp
Last Updated: 2003-05-27

        Eb6add9                F5
    x x 10 10 11 11      13 x 15 17 x x

Gtr I (E A D G B E) - 'Acoustic #1'
Gtr II (E A D G B E) - 'Electric #1 (clean)'
Gtr III (E A D G B E) - 'Electric #2 (distortion)'
Gtr IV (E A D G B E) - 'Electric #3 (distortion)'
Gtr V (E A D G B E) - 'Synth arr for guitar'

 Intro
  Q=128
 1/4   4/4
  Gtrs I, II
  Q      W            W             W             W
|----||-----------|-------------|-------------|---------|
|----||-----------|-------------|-------------|---------|
|----||-----------|-------------|-------------|---------|
|----||-----------|-------------|-------------|---------|
|----||-----------|-------------|-------------|---------|
|----||-----------|-------------|-------------|---------|
|
| Gtr V
|        <                          >             <
| W      W           +W            +W             W
|----||-13--------|-(13)--------|-(13)--------|-(13)----|
|----||-----------|-------------|-------------|---------|
|----||-----------|-------------|-------------|--17-----|
|----||-----------|-------------|-------------|---------|
|----||-----------|-------------|-------------|---------|
|----||-----------|-------------|-------------|---------|


    W             W                 W             W
|-------------|-----------------|-------------|-----------------|
|-------------|-----------------|-------------|-----------------|
|-------------|-----------------|-------------|-----------------|
|-------------|-----------------|-------------|-----------------|
|-------------|-----------------|-------------|-----------------|
|-------------|-----------------|-------------|-----------------|
|
|  +W             H       H         W            +H       H
|-(13)--------|-(13)----(13)----|-(13)--------|-(13)------------|
|-------------|-----------------|--16---------|-(16)----(16)----|
|-(17)--------|-(17)----(17)----|-(17)--------|-(17)----(17)----|
|-------------|--17------15-----|-(15)--------|-(15)----(15)----|
|-------------|-----------------|-------------|-----------------|
|-------------|-----------------|-------------|----------13-----|


       Eb6add9
        <
    E.  S  S  S  S  S  S  S  S  S  S  S  S  S
|------11-11-11-11-11-11-11-11-11-11-11-11-11-|
|------11-11-11-11-11-11-11-11-11-11-11-11-11-|
|------10-10-10-10-10-10-10-10-10-10-10-10-10-|
|------10-10-10-10-10-10-10-10-10-10-10-10-10-|
|---------------------------------------------|
|---------------------------------------------|
|
|  +W
|---------------------------------------------|
|-(16)----------------------------------------|
|-(17)----------------------------------------|
|-(15)----------------------------------------|
|---------------------------------------------|
|-(13)----------------------------------------|


    >
    W             W             W
|--11---------|-------------|---------|
|--11---------|-------------|---------|
|--10---------|-------------|---------|
|--10---------|-------------|---------|
|-------------|-------------|---------|
|-------------|-------------|---------|
|
|                               >
|  +W            +W            +W
|-------------|-------------|---------|
|-(16)--------|-------------|---------|
|-(17)--------|-(17)--------|-(17)----|
|-(15)--------|-(15)--------|-(15)----|
|-------------|-------------|---------|
|-(13)--------|-(13)--------|-(13)----|


 Verse 1
                            Gtr II
   W            W             H     E. S E E
|-----------|-------------|------------------|
|-----------|-------------|------------------|
|-----------|-------------|---------3--3-3-1-|
|-----------|-------------|------------------|
|-----------|-------------|------------------|
|-----------|-------------|------------------|
|
|  <                          >
|  W           +W            +W
|-13--------|-(13)--------|-(13)-------------|
|-----------|-------------|------------------|
|-----------|-------------|------------------|
|-----------|-------------|------------------|
|-----------|-------------|------------------|
|-----------|-------------|------------------|


    W            +W            +W
|-------------|-------------|---------|
|-------------|-------------|---------|
|--(1)--------|--(1)--------|--(1)----|
|---1---------|--(1)--------|--(1)----|
|-------------|-------------|---------|
|-------------|-------------|---------|
|
|   <
|   W            +W             W
|-(13)--------|-(13)--------|-(13)----|
|-------------|-------------|---------|
|--17---------|-(17)--------|-(17)----|
|-------------|-------------|--15-----|
|-------------|-------------|---------|
|-------------|-------------|---------|


                             Eb6add9
  Gtrs I, II
                              <
    W             H     Q  S  S  S  S
|-------------|--------------11-11-11-|
|-------------|--------------11-11-11-|
|-------------|--------------10-10-10-|
|-------------|--------------10-10-10-|
|-------------|-----------------------|
|-------------|-----------------------|
|
|  +W             W
|-(13)--------|-(13)------------------|
|-------------|--16-------------------|
|-(17)--------|-(17)------------------|
|-(15)--------|-(15)------------------|
|-------------|-----------------------|
|-------------|-----------------------|


                                                          >
    S   S  S  S  S  S  S  S   S   S  S  S  S  S  S  S     W
|--11--11-11-11-11-11-11-11--11--11-11-11-11-11-11-11-|--11-----||
|--11--11-11-11-11-11-11-11--11--11-11-11-11-11-11-11-|--11-----||
|--10--10-10-10-10-10-10-10--10--10-10-10-10-10-10-10-|--10-----||
|--10--10-10-10-10-10-10-10--10--10-10-10-10-10-10-10-|--10-----||
|-----------------------------------------------------|---------||
|-----------------------------------------------------|---------||
|
|  +H                         H                          +W
|-(13)------------------------------------------------|---------||
|-(16)----------------------(16)----------------------|-(16)----||
|-(17)----------------------(17)----------------------|-(17)----||
|-(15)----------------------(15)----------------------|-(15)----||
|-----------------------------------------------------|---------||
|----------------------------13-----------------------|-(13)----||


 Verse 2
    W               W             W             W
|---------------|-------------|-------------|---------|
|---------------|-------------|-------------|---------|
|---------------|-------------|-------------|---------|
|---------------|-------------|-------------|---------|
|---------------|-------------|-------------|---------|
|---------------|-------------|-------------|---------|
|
|   >      <                      >             <
|  +H      H       +W            +W             W
|---------13----|-(13)--------|-(13)--------|-(13)----|
|-(16)----------|-------------|-------------|---------|
|-(17)----------|-------------|-------------|--17-----|
|-(15)----------|-------------|-------------|---------|
|---------------|-------------|-------------|---------|
|-(13)----------|-------------|-------------|---------|


  Gtr III
                              ~~~~~~                 ~~~
                                                   |-3--|
    W             W           H     H        S  S S E +Q     H
|----------|--------------|--------------|-------------------------------------|
|----------|--------------|---------6----|---9--8-6-8-(8)----9b11==============|
|----------|--------------|---8----------|-------------------------------------|
|----------|--------------|--------------|-------------------------------------|
|----------|--------------|--------------|-------------------------------------|
|----------|--------------|--------------|-------------------------------------|
|
| Gtrs I, II
|                                                                     <
|   W             W            W            H               Q      S  S  S  S
|-----------|-------------|--------------|----------------------------11-11-11-|
|-----------|-------------|--------------|----------------------------11-11-11-|
|-----------|-------------|--------------|----------------------------10-10-10-|
|-----------|-------------|--------------|----------------------------10-10-10-|
|-----------|-------------|--------------|-------------------------------------|
|-----------|-------------|--------------|-------------------------------------|
|
| Gtr V
|  +W          H       H       W           +H               H
|-(13)------|-(13)----(13)--|-(13)-------|-(13)--------------------------------|
|-----------|---------------|--16--------|-(16)------------(16)----------------|
|-(17)------|-(17)----(17)--|-(17)-------|-(17)------------(17)----------------|
|-----------|--17------15---|-(15)-------|-(15)------------(15)----------------|
|-----------|---------------|------------|-------------------------------------|
|-----------|---------------|------------|------------------13-----------------|


    ~~~~
   +W
|-----------------------------------------------------|
|--(9)------------------------------------------------|
|-----------------------------------------------------|
|-----------------------------------------------------|
|-----------------------------------------------------|
|-----------------------------------------------------|
|
|   S   S  S  S  S  S  S  S  S  S  S  S  S  S  S  S
|--11--11-11-11-11-11-11-11-11-11-11-11-11-11-11-11---|
|--11--11-11-11-11-11-11-11-11-11-11-11-11-11-11-11---|
|--10--10-10-10-10-10-10-10-10-10-10-10-10-10-10-10---|
|--10--10-10-10-10-10-10-10-10-10-10-10-10-10-10-10---|
|-----------------------------------------------------|
|-----------------------------------------------------|
|
|  +W
|-----------------------------------------------------|
|-(16)------------------------------------------------|
|-(17)------------------------------------------------|
|-(15)------------------------------------------------|
|-----------------------------------------------------|
|-(13)------------------------------------------------|


  F5
  Gtr V
   W                +W           +W
   |                 |            |
   /                 /            /

   >
  +H      Q  E E     W           +W
|----------------|------------|---------|
|-(9)r-----------|------------|---------|
|--------------xS|=^10--------|-(10)----|
|--------------xS|=^10--------|-(10)----|
|--------------xS|=^-8--------|--(8)----|
|----------------|------------|---------|
|
|  >
|  W                 W            W
|-11-------------|------------|---------|
|-11-------------|------------|---------|
|-10-------------|------------|---------|
|-10-------------|------------|---------|
|----------------|------------|---------|
|----------------|------------|---------|


 Chorus 1
  F5
  +W           +W           +W                     +W
   |            |            |                      |
   /            /            /                      /

   W           +W            E.  S  E.  S  H       +W
|-----------|-------------|---------------------|-----------------------------|
|-----------|-------------|---------------------|-----------------------------|
|-10--------|-(10)--------|-10--10-10--10-10----|-(10)------------------------|
|-10--------|-(10)--------|-10--10-10--10-10----|-(10)------------------------|
|--8--------|--(8)--------|--8---8--8---8--8----|--(8)------------------------|
|-----------|-------------|---------------------|-----------------------------|
|
|  W            W            W                      H     E  S  S  S  S  S  S
|-----------|-------------|---------------------|-----------13-13-13-13-13-13-|
|-----------|-------------|---------------------|-----------13-13-13-13-13-13-|
|-----------|-------------|---------------------|-----------12-12-12-12-12-12-|
|-----------|-------------|---------------------|-----------------------------|
|-----------|-------------|---------------------|-----------------------------|
|-----------|-------------|---------------------|-----------------------------|


  F5
  +W           +W           +W
   |            |            |
   /            /            /

   W           +W            E.  S  E.  S  H
|-----------|-------------|---------------------|
|-----------|-------------|---------------------|
|-10--------|-(10)--------|-10--10-10--10-10----|
|-10--------|-(10)--------|-10--10-10--10-10----|
|--8--------|--(8)--------|--8---8--8---8--8----|
|-----------|-------------|---------------------|
|
|  W           +W            W
|-11--------|-(11)--------|---------------------|
|-11--------|-(11)--------|---------------------|
|-10--------|-(10)--------|---------------------|
|-----------|-------------|---------------------|
|-----------|-------------|---------------------|
|-----------|-------------|---------------------|


  F5
  +W                               +W
   |                                |
   /                                /

   H.             E    E            W
|-------------------------------|-----------------------------------------|
|-------------------------------|-----------------------------------------|
|-10----------------------------|-----------------------------------------|
|-10----------------------------|-----------------------------------------|
|--8-------------------8\-------|-----------------------------------------|
|-------------------------------|-----------------------------------------|
|
|  H     E  S  S  S S  S      S     W
|----------16-16-16-x-13-----13-|--11-------------------------------------|
|----------16-16-16-x-13-----13-|--11-------------------------------------|
|-------------------------------|--10-------------------------------------|
|-------------------------------|-----------------------------------------|
|-------------------------------|-----------------------------------------|
|-------------------------------|-----------------------------------------|
|
| Gtr IV
|                                               |--3--|  |------5-------|
|  H     Q        E    E           +H      +E   S  S  S  S  S     S  S  S
|---------------------16b18=====|=(16)----(16)r16p13----13-------13-------|
|-------------------------------|--------------------16----16b18----16p13-|
|-------------------------------|-----------------------------------------|
|-------------------------------|-----------------------------------------|
|-------------------------------|-----------------------------------------|
|-------------------------------|-----------------------------------------|


   +W
    |
    /

    W
|--------------------------------------||
|--------------------------------------||
|--------------------------------------||
|--------------------------------------||
|--------------------------------------||
|--------------------------------------||
|
|   >
|  +W
|-(11)---------------------------------||
|-(11)---------------------------------||
|-(10)---------------------------------||
|--------------------------------------||
|--------------------------------------||
|--------------------------------------||
|
|                                 ~~
|                       |--3---|
|   T   T  E.     +E   +S   S  S  H
|--------------------------------------||
|------13-16b18==(16)-(16)r16-13-------||
|--15----------------------------15----||
|--------------------------------------||
|--------------------------------------||
|--------------------------------------||


 Verse 3
                                Gtr II
    W               W             W
|---------------|-------------|-------------|
|---------------|-------------|-^-1---------|
|---------------|-------------|-^-3---------|
|---------------|-------------|-^-1---------|
|---------------|-------------|-^-3---------|
|---------------|-------------|-------------|
|
| Gtr IV
|  +H      H        W             W
|---------------|-------------|-------------|
|---------------|-------------|-------------|
|-(15)\---------|-------------|-------------|
|---------------|-------------|-------------|
|---------------|-------------|-------------|
|---------------|-------------|-------------|
|
| Gtr V
|   >               <
|   W               W            +W
|--13-----------|-(13)--------|-(13)--------|
|---------------|-------------|-------------|
|---------------|--17---------|-(17)--------|
|---------------|-------------|-------------|
|---------------|-------------|-------------|
|---------------|-------------|-------------|


                  >
   +W            +W             W
|-------------|-------------|-----------------|
|--(1)--------|--(1)--------|-----------------|
|--(3)--------|--(3)--------|-----------------|
|--(1)--------|--(1)--------|-----------------|
|--(3)--------|--(3)--------|-----------------|
|-------------|-------------|-----------------|
|
|   W             W             W
|-------------|-------------|-----------------|
|-------------|-------------|-----------------|
|-------------|-------------|-----------------|
|-------------|-------------|-----------------|
|-------------|-------------|-----------------|
|-------------|-------------|-----------------|
|
|   W            +W            +H       H
|-(13)--------|-(13)--------|-----------------|
|-------------|-------------|-----------------|
|-(17)--------|-(17)--------|-(17)----(17)----|
|--15---------|-(15)--------|-(15)----(15)----|
|-------------|-------------|-----------------|
|-------------|-------------|----------13-----|


  Gtr IV
                                                         |--3--|
    E   S     S  S  S     S  S  S      +S    S  S  E     S  S  S
|----------------------------------------------13-------13-------|
|------------13-16-------13-16--------------13----15b17----16p13-|
|------15b17-------15b17-------15b17==(15)r----------------------|
|----------------------------------------------------------------|
|----------------------------------------------------------------|
|----------------------------------------------------------------|
|
| Gtr V
|  +W
|----------------------------------------------------------------|
|----------------------------------------------------------------|
|-(17)-----------------------------------------------------------|
|-(15)-----------------------------------------------------------|
|----------------------------------------------------------------|
|-(13)-----------------------------------------------------------|


    S      +S    E  S  S  S  S  E.    S S  S  E
|------------------13-16-13----16b18-16---13-16-|
|---------------16----------16------------------|
|--15b17==(15)r---------------------------------|
|-----------------------------------------------|
|-----------------------------------------------|
|-----------------------------------------------|
|
|  +W
|-----------------------------------------------|
|-----------------------------------------------|
|-(17)------------------------------------------|
|-(15)------------------------------------------|
|-----------------------------------------------|
|-(13)------------------------------------------|


    |----5------|  |-----5-----|  |---------6---------|    |------5------|
    S  S  S  S  S  S  S  S  S  S  S  S  S  S  S      +S   +S    S  S  S  S
|-----13-----------------------------------------------------------------------|
|--16----16p13----13h16p13----13-----------------------------------------------|
|--------------15----------15----15p13----13-15b17==(15)-(15)rp13----13-13b15==|
|--------------------------------------15-------------------------15-----------|
|------------------------------------------------------------------------------|
|------------------------------------------------------------------------------|
|
|   >
|   W
|--13--------------------------------------------------------------------------|
|------------------------------------------------------------------------------|
|-(17)-------------------------------------------------------------------------|
|-(15)-------------------------------------------------------------------------|
|------------------------------------------------------------------------------|
|-(13)-------------------------------------------------------------------------|


                ~~~
   +E   +S   S  H.
|---------------------||
|---------------------||
|-(13)r(13)-13h15-----||
|---------------------||
|---------------------||
|---------------------||
|
|   <
|   W
|--13-----------------||
|---------------------||
|---------------------||
|---------------------||
|---------------------||
|---------------------||


 Verse 4
  Gtr IV
   >
   W            W             W
|-----------|-------------|----------------|
|-----------|-------------|----------------|
|-13--------|-------------|----------------|
|-----------|-------------|----------------|
|-----------|-------------|----------------|
|-----------|-------------|----------------|
|
| Gtr II
|  W            W             Q   Q  Q  Q
|-----------|-------------|----------------|
|-----------|-------------|----------6-----|
|-----------|-------------|-------------8--|
|-----------|-------------|----------------|
|-----------|-------------|-------8--------|
|-----------|-------------|----------------|
|
| Gtr V
|               >             <
|  W           +W             W
|-13--------|-(13)--------|-(13)-----------|
|-----------|-------------|----------------|
|-----------|-------------|--17------------|
|-----------|-------------|----------------|
|-----------|-------------|----------------|
|-----------|-------------|----------------|


    W             W                 W
|-------------|-----------------|---------|
|-------------|-----------------|---------|
|-------------|-----------------|---------|
|-------------|-----------------|---------|
|-------------|-----------------|---------|
|-------------|-----------------|---------|
|
|   >
|  +W             W                 W
|-------------|-----------------|---------|
|-------------|-----------------|---------|
|--(8)--------|-----------------|---------|
|-------------|-----------------|---------|
|-------------|-----------------|---------|
|-------------|-----------------|---------|
|
|  +W             H       H         W
|-(13)--------|-(13)----(13)----|-(13)----|
|-------------|-----------------|--16-----|
|-(17)--------|-(17)----(17)----|-(17)----|
|-------------|--17------15-----|-(15)----|
|-------------|-----------------|---------|
|-------------|-----------------|---------|


    ~~~~                                ~~~~
    H       H         H        H       +W
|---8------11-----|--13-------16----|-(16)----|
|-----------------|-----------------|---------|
|-----------------|-----------------|---------|
|-----------------|-----------------|---------|
|-----------------|-----------------|---------|
|-----------------|-----------------|---------|
|
|                                       ~~~~
|   H       H         H     a  H       +W
|-----------------|-----------------|---------|
|---6-------------|---6-----6S=9----|--(9)----|
|-----------8-----|-----------------|---------|
|-----------------|-----------------|---------|
|-----------------|-----------------|---------|
|-----------------|-----------------|---------|
|
|  +H       H        +W                +W
|-(13)------------|-----------------|---------|
|-(16)----(16)----|-(16)------------|-(16)----|
|-(17)----(17)----|-(17)------------|-(17)----|
|-(15)----(15)----|-(15)------------|-(15)----|
|-----------------|-----------------|---------|
|----------13-----|-(13)------------|-(13)----|


 Chorus 2
  F5
  Gtr V
  W             +W                    +W
  |              |                     |
  /              /                     /

  Gtr IV
                           TP TP TP    ~~
  Q   H.         H     +S  E  S  Q     W
|-------------|---------------------|-------|
|-------------|---------------------|-------|
|----10-------|-10----(10)-x\-x/-x--|-10----|
|----10-------|-10----(10)-x\-x/-x--|-10----|
|-----8-------|--8-----(8)-x\-x/-x--|--8----|
|-------------|---------------------|-------|


   +W                +W              +W
    |                 |               |
    /                 /               /

    ~~~~           ~~
          |-3-|
   +H     Q Q Q    W             +H        +E   E  +S   S  E
|---------------|-------------|----------------11-(11)-11-11-|
|-----------8---|-------------|----------------11-(11)-11-11-|
|-(10)----8-8-8-|-10----------|-(10)------(10)-10-(10)-10-10-|
|-(10)----8-8-8-|-10----------|-(10)------(10)---------------|
|--(8)----8---8-|--8----------|--(8)-------(8)---------------|
|---------------|-------------|------------------------------|


   W           +H      E  S  S  +S   S  E
|-11--------|-(11)----11-13-13-(13)-13-13-|
|-11--------|-(11)----11-13-13-(13)-13-13-|
|-10--------|-(10)----10-12-12-(12)-12-12-|
|-10--------|-(10)----10------------------|
|-----------|-----------------------------|
|-----------|-----------------------------|
|
| Gtr V
|               >
|  W            W
|-----------|--13-------------------------|
|-----------|-----------------------------|
|-17--------|-(17)------------------------|
|-15--------|-(15)------------------------|
|-----------|-----------------------------|
|-13--------|-(13)------------------------|


                     ~~~~
   a   W            +H.       +E   E
|----------------|-------------------||
|-----11---------|-(11)------(11)/---||
|-10-(10)--------|-(10)------(10)/---||
|----------------|-------------------||
|----------------|-------------------||
|----------------|-------------------||
|
|  <
|  W                +W
|-13-------------|-(13)--------------||
|----------------|-------------------||
|----------------|-------------------||
|----------------|-------------------||
|----------------|-------------------||
|----------------|-------------------||


 Verse 5
              \2.5
    H.       +Q        +W             W             W
|-------------------|-------------|-------------|---------||
|-------------------|-------------|-------------|---------||
|-^10-------(10)----|-(10)--------|-------------|---------||
|-^10-------(10)----|-(10)--------|-------------|---------||
|-^-8--------(8)----|--(8)--------|-------------|---------||
|-------------------|-------------|-------------|---------||
|
|                                     >             <
|   W                  +W            +W             W
|--13---------------|-(13)--------|-(13)--------|-(13)----||
|-------------------|-------------|-------------|---------||
|-------------------|-------------|-------------|--17-----||
|-------------------|-------------|-------------|---------||
|-------------------|-------------|-------------|---------||
|-------------------|-------------|-------------|---------||


                                       ~              ~
    W             W             H      H        H     H
|-------------|-------------|---------------|--------------||
|-------------|-------------|---4b6----4----|---1----------||
|-------------|-------------|---------------|---------1----||
|-------------|-------------|---------------|--------------||
|-------------|-------------|---------------|--------------||
|-------------|-------------|---------------|--------------||
|
|  +W             W            +W               W
|-(13)--------|-(13)--------|-(13)----------|-(13)---------||
|-------------|-------------|---------------|--16----------||
|-(17)--------|-(17)--------|-(17)----------|-(17)---------||
|-------------|--15---------|-(15)----------|-(15)---------||
|-------------|-------------|---------------|--------------||
|-------------|-------------|---------------|--------------||


    Q   E S S   T  T S S S +S  S a S S     S  S S S S T T S S S S S S S S S S
|--------------------------------------|---------------------------------------|
|--------------------------------------|--------1---------1--------------------|
|---------3-1---3p=2p1-1-1-(1)-1-1h3-1-|---1h=3---1---1h3---3-1---1-1----------|
|--------------------------------------|------------------------3-------1h3-3--|
|--------------------------------------|---------------------------------------|
|--------------------------------------|---------------------------------------|
|
|  +H           H                         +W
|-(13)---------------------------------|---------------------------------------|
|-(16)--------(16)---------------------|-(16)----------------------------------|
|-(17)--------(17)---------------------|-(17)----------------------------------|
|-(15)--------(15)---------------------|-(15)----------------------------------|
|--------------------------------------|---------------------------------------|
|--------------13----------------------|-(13)----------------------------------|


 Verse 6
                        ~~~
    |----6-----|
    S  S S S S S S E.  +H         W
|-----------------------------|---------|
|---1------------1------------|---------|
|------3p1---1h3---3b5-(3)----|---------|
|----------3------------------|---------|
|-----------------------------|---------|
|-----------------------------|---------|
|
|   W                            +W
|--13-------------------------|-(13)----|
|-(16)------------------------|---------|
|-(17)------------------------|---------|
|-(15)------------------------|---------|
|-----------------------------|---------|
|-(13)------------------------|---------|


  Gtrs I, II
           <
    Q   E  S  S  S  S  S  S  S  S  S  S
|---------11-11-11-11-11-11-11-11-11-11-|
|---------11-11-11-11-11-11-11-11-11-11-|
|---------10-10-10-10-10-10-10-10-10-10-|
|---------10-10-10-10-10-10-10-10-10-10-|
|---------------------------------------|
|---------------------------------------|
|
|  +W
|-(13)----------------------------------|
|---------------------------------------|
|---------------------------------------|
|---------------------------------------|
|---------------------------------------|
|---------------------------------------|


    S   S  S  S  S  S  S  S  S  S  S  S  S  S  S  S
|--11--11-11-11-11-11-11-11-11-11-11-11-11-11-11-11--|
|--11--11-11-11-11-11-11-11-11-11-11-11-11-11-11-11--|
|--10--10-10-10-10-10-10-10-10-10-10-10-10-10-10-10--|
|--10--10-10-10-10-10-10-10-10-10-10-10-10-10-10-10--|
|----------------------------------------------------|
|----------------------------------------------------|
|
|   >
|  +W
|-(13)-----------------------------------------------|
|----------------------------------------------------|
|----------------------------------------------------|
|----------------------------------------------------|
|----------------------------------------------------|
|----------------------------------------------------|


    S   S  S  S  S  S  S  S  S  S  S  S  S  S  S  S
|--11--11-11-11-11-11-11-11-11-11-11-11-11-11-11-11-|
|--11--11-11-11-11-11-11-11-11-11-11-11-11-11-11-11-|
|--10--10-10-10-10-10-10-10-10-10-10-10-10-10-10-10-|
|--10--10-10-10-10-10-10-10-10-10-10-10-10-10-10-10-|
|---------------------------------------------------|
|---------------------------------------------------|
|
|   <
|   W
|-(13)----------------------------------------------|
|---------------------------------------------------|
|--17-----------------------------------------------|
|---------------------------------------------------|
|---------------------------------------------------|
|---------------------------------------------------|


    S   S  S  S  S  S  S  S  S  S  S  S  S  S  S  S
|--11--11-11-11-11-11-11-11-11-11-11-11-11-11-11-11--|
|--11--11-11-11-11-11-11-11-11-11-11-11-11-11-11-11--|
|--10--10-10-10-10-10-10-10-10-10-10-10-10-10-10-10--|
|--10--10-10-10-10-10-10-10-10-10-10-10-10-10-10-10--|
|----------------------------------------------------|
|----------------------------------------------------|
|
|  +W
|-(13)-----------------------------------------------|
|----------------------------------------------------|
|-(17)-----------------------------------------------|
|----------------------------------------------------|
|----------------------------------------------------|
|----------------------------------------------------|


    S   S  S  S  S  S  S  S  S  S  S  S  S  S  S  S
|--11--11-11-11-11-11-11-11-11-11-11-11-11-11-11-11-|
|--11--11-11-11-11-11-11-11-11-11-11-11-11-11-11-11-|
|--10--10-10-10-10-10-10-10-10-10-10-10-10-10-10-10-|
|--10--10-10-10-10-10-10-10-10-10-10-10-10-10-10-10-|
|---------------------------------------------------|
|---------------------------------------------------|
|
|   W
|-(13)----------------------------------------------|
|---------------------------------------------------|
|-(17)----------------------------------------------|
|--15-----------------------------------------------|
|---------------------------------------------------|
|---------------------------------------------------|


    S   S  S  S  S  S  S  S  S  S  S  S  S  S  S  S
|--11--11-11-11-11-11-11-11-11-11-11-11-11-11-11-11--|
|--11--11-11-11-11-11-11-11-11-11-11-11-11-11-11-11--|
|--10--10-10-10-10-10-10-10-10-10-10-10-10-10-10-10--|
|--10--10-10-10-10-10-10-10-10-10-10-10-10-10-10-10--|
|----------------------------------------------------|
|----------------------------------------------------|
|
|   W
|-(13)-----------------------------------------------|
|--16------------------------------------------------|
|-(17)-----------------------------------------------|
|-(15)-----------------------------------------------|
|----------------------------------------------------|
|----------------------------------------------------|


                                                                    A cappella
                                                                      break
                                           >
    S   S  S  S  S  S  S  S   S   S  S  S  S  S  S  S     W           Wx8
|--11--11-11-11-11-11-11-11--11--11-11-11-11-11-11-11-|-------------|--------||
|--11--11-11-11-11-11-11-11--11--11-11-11-11-11-11-11-|-------------|--------||
|--10--10-10-10-10-10-10-10--10--10-10-10-10-10-10-10-|-------------|--------||
|--10--10-10-10-10-10-10-10--10--10-10-10-10-10-10-10-|-------------|--------||
|-----------------------------------------------------|-------------|--------||
|-----------------------------------------------------|-------------|--------||
|
|                                                         >
|  +H                         H                          +W           W
|-(13)------------------------------------------------|-------------|--------||
|-(16)----------------------(16)----------------------|-(16)--------|--------||
|-(17)----------------------(17)----------------------|-(17)--------|--------||
|-(15)----------------------(15)----------------------|-(15)--------|--------||
|-----------------------------------------------------|-------------|--------||
|----------------------------13-----------------------|-(13)--------|--------||


 Chorus 3
  Eb6add9
  Gtrs I, II
   S S S S S S S S S S S S S S S S     S  S S S S S S S S S S S S S S S
   | | | | | | | | | | | | | | | |     |  | | | | | | | | | | | | | | |
   / / x / / / x / / / x / / / x /     /  / x / / / x / / / x / / / x /

  Gtr IV
   W                                  +W
|----------------------------------|------------------------------------|
|----------------------------------|------------------------------------|
|-10-------------------------------|-(10)-------------------------------|
|-10-------------------------------|-(10)-------------------------------|
|--8-------------------------------|--(8)-------------------------------|
|----------------------------------|------------------------------------|
|
|  <
|  W                                  +W
|----------------------------------|------------------------------------|
|----------------------------------|------------------------------------|
|-17-------------------------------|-(17)-------------------------------|
|-15-------------------------------|-(15)-------------------------------|
|----------------------------------|------------------------------------|
|-13-------------------------------|-(13)-------------------------------|


    S  S S  S  S  S S S S S S S S S S S
    |  | |  |  |  | | | | | | | | | | |
    /  / x  /  /  / x / / / x / / / x /

    E.      S  H.
|------------------------------------------|
|------------------------------------------|
|--10------10-10---------------------------|
|--10------10-10---------------------------|
|---8-------8--8---------------------------|
|------------------------------------------|
|
|  +W
|------------------------------------------|
|------------------------------------------|
|-(17)-------------------------------------|
|-(15)-------------------------------------|
|------------------------------------------|
|-(13)-------------------------------------|


    S  S S S S S S S  S S S S S S S S     S  S S S S S S S S S S S   S   S S S
    |  | | | | | | |  | | | | | | | |     |  | | | | | | | | | | |   |   | | |
    /  / x / / / x /  / / x / / / x /     /  / x / / / x / / / x /   /   / x /

                                                                     \1/
   +H                 E   S S S S S S     H.                        +Q
|-------------------------------------|----------------------------------------|
|-------------------------------------|----------------------------------------|
|-(10)---------------10---8-8-8-8-8-8-|--10------------------------(10)--------|
|-(10)---------------10---8-8-8-8-8-8-|--10------------------------(10)--------|
|--(8)----------------8---8-8-8-8-8-8-|---8-------------------------(8)--------|
|-------------------------------------|----------------------------------------|
|
|  +W                                    +W
|-------------------------------------|----------------------------------------|
|-------------------------------------|----------------------------------------|
|-(17)--------------------------------|-(17)-----------------------------------|
|-(15)--------------------------------|-(15)-----------------------------------|
|-------------------------------------|----------------------------------------|
|-(13)--------------------------------|-(13)-----------------------------------|


    S   S S S   S   S S S   S   S S S   S   S S S
    |   | | |   |   | | |   |   | | |   |   | | |
    /   / x /   /   / x /   /   / x /   /   / x /

    \1/         \1/         \1/         \1/
   +Q          +Q          +Q          +Q
|----------------------------------------------------|
|----------------------------------------------------|
|-(10)--------(10)--------(10)--------(10)-----------|
|-(10)--------(10)--------(10)--------(10)-----------|
|--(8)---------(8)---------(8)---------(8)-----------|
|----------------------------------------------------|
|
|  +W
|----------------------------------------------------|
|----------------------------------------------------|
|-(17)-----------------------------------------------|
|-(15)-----------------------------------------------|
|----------------------------------------------------|
|-(13)-----------------------------------------------|


    S   S S S   S   S S S   S   S S S   S   S S S
    |   | | |   |   | | |   |   | | |   |   | | |
    /   / x /   /   / x /   /   / x /   /   / x /

    \1/         \1/         \1/         \1/
   +Q          +Q          +Q          +Q
|-------------------------------------------------|
|-------------------------------------------------|
|-(10)--------(10)--------(10)--------(10)--------|
|-(10)--------(10)--------(10)--------(10)--------|
|--(8)---------(8)---------(8)---------(8)--------|
|-------------------------------------------------|
|
|   <
|  +W
|-------------------------------------------------|
|-------------------------------------------------|
|-(17)--------------------------------------------|
|-(15)--------------------------------------------|
|-------------------------------------------------|
|-(13)--------------------------------------------|


    S  S S S S S  S S S S S S S S S S     W            W
    |  | | | | |  | | | | | | | | | |
    /  / x / / /  x / / / x / / / x /

                                                       >
    ~~~~
   +Q.            E   H                   W           +W
|-------------------------------------|---1---------|-(1)------||
|-------------------------------------|---1---------|-(1)------||
|-(10)-----------10p==8---------------|---3---------|-(3)------||
|-(10)-----------10p==8---------------|---3---------|-(3)------||
|--(8)------------8---8---------------|-------------|----------||
|-------------------------------------|-------------|----------||
|
|                                         >
|  +W                                    +W               W
|-------------------------------------|-------------|----------||
|-------------------------------------|-------------|----------||
|-(17)--------------------------------|-(17)--------|----------||
|-(15)--------------------------------|-(15)--------|----------||
|-------------------------------------|-------------|----------||
|-(13)--------------------------------|-(13)--------|----------||


  Gtrs II, IV
   E S S     +S  S S S E E     E E
|----------------------------------|
|----------------------------------|
|----------------------------------|
|----------------------------------|
|----------------1---1---------1-3-|
|--1-1-4b4.5-(4)-------1-4b4.5-----|
|
| Gtr V
|  W
|-13-------------------------------|
|----------------------------------|
|----------------------------------|
|----------------------------------|
|----------------------------------|
|----------------------------------|


                                 Verse 7
                             ~
    E  S S     +S  S S S E E Q      E  S S     +S  S S S E E E E
|-------------------------------|---------------------------------|
|-------------------------------|---------------------------------|
|-------------------------------|---------------------------------|
|-------------------------------|---------------------------------|
|------------------1---1-----3--|------------------1---1-----1-3--|
|---1--1-4b4.5-(4)-------1-4----|---1--1-4b4.5-(4)-------1-4------|
|
|   >                               <
|  +W                               W
|-(13)--------------------------|-(13)----------------------------|
|-------------------------------|---------------------------------|
|-------------------------------|--17-----------------------------|
|-------------------------------|---------------------------------|
|-------------------------------|---------------------------------|
|-------------------------------|---------------------------------|


                             ~
    E  S S     +S  S S S E E Q
|-------------------------------|
|-------------------------------|
|-------------------------------|
|----------------------------1--|
|------------------1---1--------|
|---1--1-4b4.5-(4)-------1-4----|
|
|  +W
|-(13)--------------------------|
|-------------------------------|
|-(17)--------------------------|
|-------------------------------|
|-------------------------------|
|-------------------------------|


                                                              ~
    E  S S     +S  S S S E E E E     E  S S     +S  S S S E E Q
|--------------------------------|--------------------------------|
|--------------------------------|--------------------------------|
|--------------------------------|--------------------------------|
|--------------------------------|--------------------------------|
|------------------1---1-----1-3-|------------------1---1-----3---|
|---1--1-4b4.5-(4)-------1-4-----|---1--1-4b4.5-(4)-------1-4-----|
|
|   W                               +W
|--------------------------------|--------------------------------|
|--------------------------------|--------------------------------|
|-(17)---------------------------|-(17)---------------------------|
|--15----------------------------|-(15)---------------------------|
|--------------------------------|--------------------------------|
|--------------------------------|--------------------------------|


                                  Begin Outro Chorus/Vocals
                                                              ~
    E  S S     +S  S S S E E E E     E  S S     +S  S S S E E Q
|--------------------------------|-------------------------------|
|--------------------------------|-------------------------------|
|--------------------------------|-------------------------------|
|--------------------------------|----------------------------1--|
|------------------1---1-----1-3-|------------------1---1--------|
|---1--1-4b4.5-(4)-------1-4-----|---1--1-4b4.5-(4)-------1-4----|
|
|  +W                                W
|--------------------------------|--13---------------------------|
|--------------------------------|-------------------------------|
|-(17)---------------------------|-(17)--------------------------|
|-(15)---------------------------|-(15)--------------------------|
|--------------------------------|-------------------------------|
|--------------------------------|-------------------------------|


    E  S S     +S  S S S E E E E
|---------------------------------|
|---------------------------------|
|---------------------------------|
|---------------------------------|
|------------------1---1-----1-3--|
|---1--1-4b4.5-(4)-------1-4------|
|
|  +W
|-(13)----------------------------|
|---------------------------------|
|-(17)----------------------------|
|-(15)----------------------------|
|---------------------------------|
|---------------------------------|


                                                  Eb6add9
  Gtrs I, II
    W                               Q          S  S S S S S S S S S S S
                                                  | | | | | | | | | | |
                                                  / / / / / / / / / / /

    E  S S     +S  S S S E E E E    E S S     +S  S S S E   E   Q
|--------------------------------|--------------------------------------|
|--------------------------------|--------------------------------------|
|--------------------------------|--------------------------------------|
|--------------------------------|--------------------------------------|
|------------------1---1-----1-3-|----------------1---1---------3-------|
|---1--1-4b4.5-(4)-------1-4-----|--1-1-4b4.5-(4)-------1---4-----------|
|
|   >
|  +W                               W
|-(13)---------------------------|--------------------------------------|
|--------------------------------|--------------------------------------|
|-(17)---------------------------|-15-----------------------------------|
|-(15)---------------------------|-15-----------------------------------|
|--------------------------------|--------------------------------------|
|--------------------------------|--------------------------------------|


    S  S S S S S S S S S S S S S S S    W
    |  | | | | | | | | | | | | | | |    |
    /  / / / / / / / / / / / / / / /    /

    ~~~~~~~~~~~~~~~~~~~~~~~~~~~~~~~~~~~~~~~~~~~~~~~
   +W                                  +W
|------------------------------------|------------|
|------------------------------------|------------|
|------------------------------------|------------|
|------------------------------------|------------|
|--(3)-------------------------------|-(3)--------|
|------------------------------------|------------|
|
|                                       >
|  +W                                   W
|------------------------------------|------------|
|------------------------------------|------------|
|-(15)-------------------------------|-15---------|
|------------------------------------|------------|
|------------------------------------|------------|
|------------------------------------|------------|


                          Outro a cappella chorus
   +W           W           W
    |
    /

    >
 ~~~~~~
   +W           W             W
|-------------|----------|---------------|
|-------------|----------|---------------|
|-------------|----------|---------------|
|-------------|----------|---------------|
|--(3)--------|----------|---------------|
|-------------|----------|---------------|
|
|                           <       >
|  +W           W           H       H
|-------------|----------|---------------|
|-------------|----------|---------------|
|-(15)--------|----------|---------------|
|-------------|----------|-15------15----|
|-------------|----------|---------------|
|-------------|----------|---------------|


  Gtr V
                         <    >
  W          W           H    H       W
|----------|----------|------------|-------*|
|----------|----------|------------|-------*|
|----------|----------|-15---15----|-------*|
|----------|----------|------------|-------*|
|----------|----------|------------|-------*|
|----------|----------|------------|-------*|


Duration Legend
---------------
W - whole; H - half; Q - quarter; E - 8th; S - 16th; T - 32nd;
     X - 64th; a - acciaccatura
+ - note tied to previous; . - note dotted; .. - note double dotted
Uncapitalized letters represent notes that are staccato (1/2 duration)
Irregular groupings are notated above the duration line
Duration letters will always appear directly above the note/fret number
it represents the duration for.  Duration letters with no fret number
below them represent rests.  Multi-bar rests are notated in the form Wxn,
where n is the number of bars to rest for.  Low melody durations appear
below the staff.

Tablature Legend
----------------
 h   - hammer-on
 p   - pull-off
 b   - bend
 pb  - pre-bend
 r   - bend release (if no number after the r, then release immediately)
 /\  - slide into or out of (from/to "nowhere")
 s   - legato slide
 S   - shift slide
  - natural harmonic
[n]  - artificial harmonic
n(n) - tapped harmonic
 ~   - vibrato
 tr  - trill
 T   - tap
 TP  - trem. picking
 PM  - palm muting
\n/  - tremolo bar dip; n = amount to dip
 \n  - tremolo bar down
 n/  - tremolo bar up
/n\  - tremolo bar inverted dip
 =   - hold bend; also acts as connecting device for hammers/pulls
 <>  - volume swell (louder/softer)
 x   - on rhythm slash represents muted slash
 o   - on rhythm slash represents single note slash

Misc Legend
-----------
 |  - bar
||  - double bar
||o - repeat start
o|| - repeat end
*|  - double bar (ending)
 :  - bar (freetime)
 $  - Segno
 &  - Coda
Tempo markers -  = BPM(8/16=s8/s16),
 where s8 = swing 8ths, s16 = swing 16ths


****************************************************
* Generated using Power Tab Editor by Brad Larsen -
*  http://powertab.guitarnetwork.org *
****************************************************
  development and support by
dmitry ivanov