rock
 
|tablatures   |lyrics   |discussion forums   |more tabs @ XGuitar.com

Rush tabs

Red Tide guitar tab

RED TIDE
                               As recorded by Rush
                          (From the 1989 Album PRESTO)

Words by Peart

Music by Lee/Lifeson
Transcribed by Keith Nelson - ob1gynob@hotmail.com
     From the Rush Tablature Project - www.cygnusproductions.com/rtp
Last Updated: 2003-05-27

        F                  Gadd4                 Dm                   Am
  x x 3 2 1 x          x x 5 4 1 x         x x x 2 3 1         x x 2 2 1 x

        G                   C/G                Dsus2/A              Fsus2/C
  x 5 5 4 x x          x x 5 5 5 x         x x x 14 15 12      x x 10 10 8 x

        G5                   Gm                  DmXII                 CX
  x 10 12 12 x x       x 5 5 3 x x         x x 12 14 15 13     x x 10 12 13 12

       FVIII                 GmX
  x x 10 10 10 8       x x 12 12 11 10

Gtr I (E A D G B E) - 'Piano'
Gtr II (E A D G B E) - 'Electric #1 (clean)'
Gtr III (E A D G B E) - 'Synthesizer'
Gtr IV (E A D G B E) - 'Hammond organ'
Gtr V (E A D G B E) - 'Synth brass'
Gtr VI (E A D G B E) - 'Electric #2 (distortion)'

 Intro
  Q=147
 4/4
  Gtr I
  E E E E E E E E   E E E E E E E E   E E E E E E E E   E E E E E E E E
|-----------------|-----------------|-----------------|-----------------|
|-----1-0---------|-----------------|-----1-0---------|-----------------|
|---2---------0---|-----0-----------|---2---------0---|-----0-----------|
|-0-------------3-|---3---3---5---5-|-0-------------3-|---3---3---5---5-|
|-----------3-----|-1-------3---3---|-----------3-----|-1-------3---3---|
|---------1-------|-----------------|---------1-------|-----------------|


  E  E E  E E  E E  E   E  E  E E  E  E E E
|---------------------|---------------------|
|------1--0-----------|---------------------|
|----2-----------0----|-------0-------------|
|-0-----------------3-|----3----3-----5---5-|
|--------------3------|-1----------3----3---|
|-----------1---------|---------------------|
|
| Gtr VI
| E  E Q    E  E E  E   E +E  E E +E  E E E
|-1s=3-1----3--3-3--3-|-1-(1)s3-3-(3)-3-3-3-|
|-1s=3-1----3--3-3--3-|-1-(1)s3-3-(3)-3-3-3-|
|-0----0----0--0-0--0-|-0-(0)---0-(0)-0-0-0-|
|-3s=5-3----5--5-5--5-|-3-(3)s5-5-(5)-5-5-5-|
|---------------------|---------------------|
|---------------------|---------------------|
|
| Gtr V
| E  E E  E E  E E  E   W
|---22---20---22------|---------------------|
|------------------22-|---------------------|
|---------------------|---------------------|
|---------------------|---------------------|
|---------------------|---------------------|
|---------------------|---------------------|


  E  E E  E E  E E  E     E  E E  E  E  E    E E
|---------------------|--------------------------|
|------1--0-----------|--------------------------|
|----2-----------0----|--------0-----------------|
|-0-----------------3-|------3----3-----5------5-|
|--------------3------|---1----------3-------3---|
|-----------1---------|--------------------------|
|
| E  E Q    E  E E  E     Q    E  E +E  S  S E E
|-1s=3-1----3--3-3--3-|---1-------3-(3)----------|
|-1s=3-1----3--3-3--3-|---1----3--3-(3)-3--3-3-1-|
|-0----0----0--0-0--0-|---0----0--0-(0)-0--0-0-0-|
|-3s=5-3----5--5-5--5-|---3----5--5-(5)-5--5-5-3-|
|---------------------|--------------------------|
|---------------------|--------------------------|
|
| E  E E  E E  E E  E    +E  Q    Q     Q.
|---22---20---22------|--------------------------|
|------------------20-|-(20)-----18--------------|
|---------------------|--------------------------|
|---------------------|--------------------------|
|---------------------|--------------------------|
|---------------------|--------------------------|


  E  E E  E E  E E  E   E  E  E E  E  E E E
|---------------------|---------------------|
|------1--0-----------|---------------------|
|----2-----------0----|-------0-------------|
|-0-----------------3-|----3----3-----5---5-|
|--------------3------|-1----------3----3---|
|-----------1---------|---------------------|
|
| E  E Q    E  E E  E   E +E  E E +E  E E E
|-1s=3-1----3--3-3--3-|-1-(1)s3-3-(3)-3-3-3-|
|-1s=3-1----3--3-3--3-|-1-(1)s3-3-(3)-3-3-3-|
|-0----0----0--0-0--0-|-0-(0)---0-(0)-0-0-0-|
|-3s=5-3----5--5-5--5-|-3-(3)s5-5-(5)-5-5-5-|
|---------------------|---------------------|
|---------------------|---------------------|
|
| E  E E  E E  E E  E   W
|---22---20---22------|---------------------|
|------------------22-|---------------------|
|---------------------|---------------------|
|---------------------|---------------------|
|---------------------|---------------------|
|---------------------|---------------------|


  E  E E  E E  E E  E     E  E E  E  E  E  E E
|---------------------|-------------------------||
|------1--0-----------|-------------------------||
|----2-----------0----|--------0----------------||
|-0-----------------3-|------3----3-----5----5--||
|--------------3------|---1----------3-----3----||
|-----------1---------|-------------------------||
|
| E  E Q    E  E E  E     Q    E  E +E  E  Q
|-1s=3-1----3--3-3--3-|---1-------3-(3)---------||
|-1s=3-1----3--3-3--3-|---1----3--3-(3)-3--3----||
|-0----0----0--0-0--0-|---0----0--0-(0)-0--0----||
|-3s=5-3----5--5-5--5-|---3----5--5-(5)-5--5----||
|---------------------|-------------------------||
|---------------------|-------------------------||
|
| E  E E  E E  E E  E    +E  Q    Q     Q.
|---22---20---22------|-------------------------||
|------------------20-|-(20)-----18-------------||
|---------------------|-------------------------||
|---------------------|-------------------------||
|---------------------|-------------------------||
|---------------------|-------------------------||


  F                Gadd4               F                  Gadd4
  Gtr III
  W                 W                   W                  W
  |                 |                   |                  |
  /                 /                   /                  /

  Gtr I
  W                 H        H          W                  H        H
|----------------|-------------------|------------------|-------------------|
|-1--------------|-------------------|--1---------------|-------------------|
|-2--------------|--4----------------|--2---------------|--4----------------|
|-3--------------|--5--------2-------|--3---------------|--5--------2-------|
|----------------|-------------------|------------------|-------------------|
|----------------|-------------------|------------------|-------------------|
|
| Gtr VI
| PM----------------------------------------------------------------------|
| E E E Q  E E E    E  E E E E E E E    E  E E Q  E E E    E  E E E E E E E
|----------------|-------------------|------------------|-------------------|
|----------------|-------------------|------------------|-------------------|
|----------------|-------------------|------------------|-------------------|
|----------------|-------------------|------------------|-------------------|
|-3-3---3--3-3-3-|--5--5---5---5-5-5-|--3--3---3--3-3-3-|--5--5---5---5-5-5-|
|----------------|-------------------|------------------|-------------------|
|
| Gtr II
|                   >
| W                +W                  +W                 +W
|-1--------------|-(1)---------------|-(1)--------------|-(1)---------------|
|-1--------------|-(1)---------------|-(1)--------------|-(1)---------------|
|-2--------------|-(2)---------------|-(2)--------------|-(2)---------------|
|-3--------------|-(3)---------------|-(3)--------------|-(3)---------------|
|-3--------------|-(3)---------------|-(3)--------------|-(3)---------------|
|-1--------------|-(1)---------------|-(1)--------------|-(1)---------------|


   Verse 1 and 2
    F                Gadd4             F                Gadd4
    W                W                 W                W
    |                |                 |                |
    /                /                 /                /

    W                H       H         W                H       H
||-----------------|-----------------|----------------|------------------|
||o-1--------------|-----------------|-1--------------|------------------|
||--2--------------|-4---------------|-2--------------|-4----------------|
||--3--------------|-5-------2-------|-3--------------|-5-------2--------|
||o----------------|-----------------|----------------|------------------|
||-----------------|-----------------|----------------|------------------|
|
|   E E E Q  E E E   E E E E E E E E   E E E Q  E E E   E E E E E E E E
||-----------------|-----------------|----------------|------------------|
||o----------------|-----------------|----------------|------------------|
||-----------------|-----------------|----------------|------------------|
||-----------------|-----------------|----------------|------------------|
||o-3-3---3--3-3-3-|-5-5---5---5-5-5-|-3-3---3--3-3-3-|-5-5---5---5-5-5--|
||-----------------|-----------------|----------------|------------------|


  F                Gadd4             F                Gadd4
  W                W                 W                W
  |                |                 |                |
  /                /                 /                /

  W                H       H         W                H       H
|----------------|-----------------|----------------|-----------------||
|-1--------------|-----------------|-1--------------|-----------------||
|-2--------------|-4---------------|-2--------------|-4---------------||
|-3--------------|-5-------2-------|-3--------------|-5-------2-------||
|----------------|-----------------|----------------|-----------------||
|----------------|-----------------|----------------|-----------------||
|
| E E E Q  E E E   E E E E E E E E   E E E Q  E E E   E E E E E E E E
|----------------|-----------------|----------------|-----------------||
|----------------|-----------------|----------------|-----------------||
|----------------|-----------------|----------------|-----------------||
|----------------|-----------------|----------------|-----------------||
|-3-3---3--3-3-3-|-5-5---5---5-5-5-|-3-3---3--3-3-3-|-5-5---5---5-5-5-||
|----------------|-----------------|----------------|-----------------||


 Pre-Chorus
  Dm                      Am
  W          +W           W          +W
  |           |           |           |
  /           /           /           /

  W          +W           W          +W
|----------|------------|----------|--------|
|----------|------------|----------|--------|
|-2--------|-(2)--------|-2--------|-(2)----|
|-3--------|-(3)--------|-2--------|-(2)----|
|-5--------|-(5)--------|-3--------|-(3)----|
|----------|------------|----------|--------|
|
| Gtr VI
| W          +W           W          +W
|-5--------|-(5)--------|-0--------|-(0)----|
|-6--------|-(6)--------|-1--------|-(1)----|
|-7--------|-(7)--------|-2--------|-(2)----|
|-7--------|-(7)--------|-2--------|-(2)----|
|-5--------|-(5)--------|-0--------|-(0)----|
|----------|------------|----------|--------|


  W                  +W
  |                   |
  o                   /

  W                  +W
|------------------|---------------------|
|-3----------------|-(3)-----------------|
|-5----------------|-(5)-----------------|
|-5----------------|-(5)-----------------|
|------------------|---------------------|
|------------------|---------------------|
|
| E E E E E  E E E    E  E E E +E  E E E
|-----8-----10-----|--8------------------|
|---8---8------8---|-----8---8-(8)---8---|

|-0-------0------0-|-------0-0-(0)-0---0-|
|------------------|---------------------|
|------------------|---------------------|
|------------------|---------------------|


  W                  +W
  |                   |
  o                   /

  W                  +W
|------------------|----------------------|
|-1----------------|-(1)------------------|
|-2----------------|-(2)------------------|
|-3----------------|-(3)------------------|
|------------------|----------------------|
|------------------|----------------------|
|
| E E E E E  E E E    E  E E E E E E +E
|-----8-----10-----|--8-------------------|
|---8---8------8---|-----8---8-8---8-(8)\-|
|-0-------0------0-|-------0-0-0-0--------|
|------------------|----------------------|
|------------------|----------------------|
|------------------|----------------------|


 Chorus 1 and 2
  Am        G    Am            Am         G    Am
  H.        Q    W             +H.        Q    W
  |         |    |              |         |    |
  /         /    /              /         /    /

  Q.   Q.   Q    W              Q.   Q.   Q    W
|--------------|-------------|---------------|-----------|
|-5----5----8--|-5-----------|--5----5----8--|-5---------|
|-5----5----7--|-5-----------|--5----5----7--|-5---------|
|-7----7----9--|-7-----------|--7----7----9--|-7---------|
|--------------|-------------|---------------|-----------|
|--------------|-------------|---------------|-----------|
|
|                    ~~~                           ~~~
| Q.   Q.   Q    Q  +H.         Q.   Q.   Q    Q  +H.
|-0----0-------|-0--(0)------|--0----0-------|-0--(0)----|
|-1----1----0--|-1--(1)------|--1----1----0--|-1--(1)----|
|-2----2----0--|-2--(2)------|--2----2----0--|-2--(2)----|
|-2----2----0--|-2--(2)------|--2----2----0--|-2--(2)----|
|-0----0----x--|-0--(0)------|--0----0----x--|-0--(0)----|
|-----------3--|-------------|------------3--|-----------|


  1.                                   2.
  F                Gadd4               Am        G    Am
  W                W                   H.        Q    W
  |                |                   |         |    |
  /                /                   /         /    /

  W                H       H           Q.   Q.   Q    W
|----------------|------------------||--------------|-----------|
|-1--------------|-----------------o||-5----5----8--|-5---------|
|-2--------------|-4----------------||-5----5----7--|-5---------|
|-3--------------|-5-------2--------||-7----7----9--|-7---------|
|----------------|-----------------o||--------------|-----------|
|----------------|------------------||--------------|-----------|
|
| Gtr VI
| PM-----------------------------|                        ~~~
| E E E Q  E E E   E E E E E E E E     Q.   Q.   Q    Q  +H.
|----------------|------------------||-0----0-------|-0--(0)----|
|----------------|-----------------o||-1----1----0--|-1--(1)----|
|----------------|------------------||-2----2----0--|-2--(2)----|
|----------------|------------------||-2----2----0--|-2--(2)----|
|-3-3---3--3-3-3-|-5-5---5---5-5-5-o||-0----0----x--|-0--(0)----|
|----------------|------------------||-----------3--|-----------|


  Am           G    C/G            Dsus2/A               C/G
  H.           Q    W              W                     W
  |            |    |              |                     |
  /            /    /              /                     /

  Q.   Q.      Q    W              W                     W
|-----------------|-------------||---------------------|---------------------|
|-5----5-------8--|-5-----------||---------------------|---------------------|
|-5----5-------7--|-5-----------||---------------------|---------------------|
|-7----7-------9--|-5-----------||---------------------|---------------------|
|-----------------|-------------||---------------------|---------------------|
|-----------------|-------------||---------------------|---------------------|
|
|                       ~~~
| Q.   E  +Q   Q    Q  +H.         E E E E +E  E E  E    E E E  E  +E  E E E
|-0----0--(0)-----|-3--(3)------||-------0-(0)-0-------|-------(0)-(0)-------|
|-1----1--(1)--0--|-1--(1)------||-----3---------3-----|--------1--(1)-------|
|-2----2--(2)--0--|-0--(0)------||---2-------------(2)-|-----0---------0-----|
|-2----2--(2)--0--|-2--(2)------||-0-------------------|---2-------------2---|
|-0----0--(0)--x--|-3--(3)------||---------------------|-3-----------------3-|
|--------------3--|-------------||---------------------|---------------------|


  Fsus2/C          G5
  W                W                   W                 W
  |                |
  /                /

  Gtr VI
                                       PM--------------------------------|
  E E E E E Q  E   E E E E +E  E E E   E E E E E E E E   E E E E E E a E E
|----------------|-------------------|-----------------|--------------------||
|----------------|-------------------|-----------------|--------------------||
|-------0-0------|-------0-(0)---0---|-----0-----0-----|-----0--------------||
|-----3-----3----|-----5---------5---|-----3-----3-----|-----5--------------||
|---3------------|---5---------5---5-|-3-3-3-3-3-3-3-3s|=5-5-5-5-5-5-5h7p5--||
|-1------------1-|-3-----------------|-1-1-1-1-1-1-1-1s|=3-3-3-3-3-3---3-3--||


 Verse 3
  PM--------------------------------------------------|
  E E E E E E E E   E E E E E a E E E   E E E E E E E E   E E E E E E E E
|-----------------|-------------------|-----------------|------------------|
|-----------------|-------------------|-----------------|---------0--------|
|-----0-----0-----|-----0-------------|-----0-----0-----|-----0-------0----|
|-----3-----3-----|-----5-------------|-----3-----3-----|-------5---5---5--|
|-3-3-3-3-3-3-3-3s|=5-5-5-5-5-7p5-5-5-|-3-3-3-3-3-3-3-3s|=5-5--------------|
|-1-1-1-1-1-1-1-1s|=3-3-3-3-3---3-3-3-|-1-1-1-1-1-1-1-1s|=3----------------|


  PM------------------------------|
  E E E E E E E E   E E E E E E E E   E E E E E E E E    Q.    E  +Q    Q
|-----------------|-----------------|-----------------|---------------------|
|-----------------|-----------------|-----------------|---------------------|
|-----0-----0-----|-----0-----------|-----0-----0---0-|-(4)---(4)-(4)--(4)--|
|-----3-----3-----|-----5-----------|---------------3-|--5-----5--(5)---5---|
|-3-3-3-3-3-3-3-3s|=5-5-5-5-5-7-5-7-|---3-----3-----3-|--5-----5--(5)---5---|
|-1-1-1-1-1-1-1-1s|=3-3-3-3-3-3-3-3-|-1-----1-----1---|--3-----3--(3)---3---|


 Pre-Chorus
  Gtr I
  W                +W
|----------------|---------------------------|
|----------------|---------------------------|
|-2--------------|-(2)-----------------------|
|-3--------------|-(3)-----------------------|
|-5--------------|-(5)-----------------------|
|----------------|---------------------------|
|
| Gtr VI
|          PM------------------------------|
| H    +E  E E E    E  E E  E   E   E   E  E
|-5----(5)-------|---------------------------|
|-6----(6)-------|---------------------------|
|-7----(7)-------|---------(7)-(7)-(7)-(7)S0-|
|-7----(7)-7-7-7-|--7--7-7--7---7---7---7S=0-|
|-5----(5)-5-5-5-|--5--5-5--5---5---5---5S=0-|
|----------------|---------------------------|


  W                +W
|----------------|---------------------|
|----------------|---------------------|
|-2--------------|-(2)-----------------|
|-2--------------|-(2)-----------------|
|-3--------------|-(3)-----------------|
|----------------|---------------------|
|
| H    +E  E E E    E  E E E +E  E E E
|-0----(0)-------|---------0-(0)-0-0-0-|
|-1----(1)-------|--1----1-1-(1)-1-1-1-|
|-2----(2)-2-2-2-|--2----2-0-(0)-0-2-2-|
|-2----(2)-2-2-2-|--2----2-2-(2)-2-2-2-|
|-0----(0)-0-0-0-|--0----0-3-(3)-3-0-0-|
|----------------|-----3---------------|


  Gtr III
  W                  +W
  |                   |
  o                   /

  W                  +W
|------------------|---------------------|
|-3----------------|-(3)-----------------|
|-5----------------|-(5)-----------------|
|-5----------------|-(5)-----------------|
|------------------|---------------------|
|------------------|---------------------|
|
| E E E E E  E E E    E  E E E +E  E E E
|-----8-----10-----|--8------------------|
|---8---8------8---|-----8---8-(8)---8---|
|-0-------0------0-|-------0-0-(0)-0---0-|
|------------------|---------------------|
|------------------|---------------------|
|------------------|---------------------|


  W                  +W
  |                   |
  o                   /

  W                  +W
|------------------|-------------------||
|-1----------------|-(1)---------------||
|-2----------------|-(2)---------------||
|-3----------------|-(3)---------------||
|------------------|-------------------||
|------------------|-------------------||
|
| E E E E E  E E E    E  E E E E E E E
|-----8-----10-----|--8----------------||
|---8---8------8---|-----8---8-8---8---||
|-0-------0------0-|-------0-0-0-0---0-||
|------------------|-------------------||
|------------------|-------------------||
|------------------|-------------------||


 Bridge
  E E E E E E E E   E E E E E E E E
|-----------------|-----------------|
|-----1-0---------|-----------------|
|---2---------0---|-----0-----------|
|-0-------------3-|---3---3---5---5-|
|-----------3-----|-1-------3---3---|
|---------1-------|-----------------|


    E E E E  E  E E E   E E E E  E  E E E
||--------------------|-------------------|
||o-----1-0-----------|-------------------|
||----2-----------0---|-----0-------------|
||--0---------------3-|---3---3-----5---5-|
||o-------------3-----|-1--------3----3---|
||-----------1--------|-------------------|
|
|   Gtr II
|   E E E E +H          E E E E +H
||--------------------|-------------------|
||o-----1-0-(0)-------|-------------------|
||----2---------------|-----0-------------|
||--0-----------------|---3---3-(3)-------|
||o-------------------|-1-----------------|
||--------------------|-------------------|


   E  E E E E E E E    E  E E E E E E E
|-------------------|---------------------||
|-------1-0---------|--------------------o||
|-----2---------0---|-------0-------------||
|--0--------------3-|-----3---3---5---5---||
|-------------3-----|--1--------3---3----o||
|-----------1-------|---------------------||
|
| +H        E E E E   +W
|-------------------|---------------------||
|-------------------|--------------------o||
|---------------0---|---------------------||
|-(3)-------------3-|-(3)-----------------||
|-------------3-----|--------------------o||
|-----------1-------|---------------------||


  Gtr VI
  E E Q  E E E E   E E E E +E  E E E   E E Q  E E E E   E E E E +E  E E E
|-1-3-1------3---|-1-----3-(3)-1-3-1-|-1-3-1------3---|-1-----3-(3)---3---|
|-1-3-1--3-3-3-3-|-1-----3-(3)-1-3-1-|-1-3-1--3-3-3-3-|-1-----3-(3)-3-3-3-|
|-0-0-0--0-0-0-0-|-0-0-0-0-(0)-0-0-0-|-0-0-0--0-0-0-0-|-0-0-0-0-(0)-0-0-0-|
|--------5-5-5-5-|-------------------|--------5-5-5-5-|-------------5-5-5-|
|----------------|-------------------|----------------|-------------------|
|----------------|-------------------|----------------|-------------------|


  Dm              C/G             F               Gm
  Gtr III
  W               W               W               W
  |               |               |               |
  /               /               /               /

                              PM
  Q.   Q.   Q     Q.   Q.   E E   Q.   Q.   E E   H.      E S S
|-5----5----5\--|---------------|-1----1----1s3-|-3--------------|
|-6----6----6\--|-5----5----5---|-1----1----1s3-|-3--------------|
|-7----7----7\--|-5----5----5---|-2----2----2s3-|-3---------2-2--|
|-7----7----7\--|-5----5----5-0-|-3----3----3s5-|-5-------5-2-2--|
|-5----5----5\--|-3----3----3-0-|-3----3----3s5-|-5-------5-0-0--|
|---------------|-------------0-|-1----1----1s3-|-3-------3------|


  W                W                 W               W
           PM------------|
  H    +E  E E E   E E E E E E E E   Q.   E +H       W
|----------------|-----------------|-3----3-(3)----|-3----|
|----------------|-----------------|-3----3-(3)----|-3----|
|-2----(2)-2-x---|---------2-2-2-0-|-0----0-(0)----|-0----|
|-2----(2)-2-x-2-|-2-2-2-2-2-2-2-0-|-0----0-(0)----|-0----|
|-0----(0)-0-x-0-|-0-0-0-0-0-0-0-0-|-x----x-(x)----|-x----|
|----------------|-----------------|-3----3-(3)----|-3----|


  Dm              C/G             F               Gm
  W               W               W               W
  |               |               |               |
  /               /               /               /

                              PM
  Q.   Q.   Q     Q.   Q.   E E   Q.   Q.   E E   W
|-5----5----5\--|---------------|-1----1----1s3-|-3----|
|-6----6----6\--|-5----5----5---|-1----1----1s3-|-3----|
|-7----7----7\--|-5----5----5---|-2----2----2s3-|-3----|
|-7----7----7\--|-5----5----5-0-|-3----3----3s5-|-5----|
|-5----5----5\--|-3----3----3-0-|-3----3----3s5-|-5----|
|---------------|-------------0-|-1----1----1s3-|-3----|


                                                 Guitar Solo
  DmXII           CX              FVIII           GmX
  Gtr IV
  W               W               W               W
  |               |               |               |
  /               /               /               /

                              PM
  Q.   Q.   Q     Q.   Q.   E E   Q.   Q.   E E   W
|-5----5----5\--|---------------|-1----1----1s3-|-3------------|
|-6----6----6\--|-5----5----5---|-1----1----1s3-|-3------------|
|-7----7----7\--|-5----5----5---|-2----2----2s3-|-3------------|
|-7----7----7\--|-5----5----5-0-|-3----3----3s5-|-5------------|
|-5----5----5\--|-3----3----3-0-|-3----3----3s5-|-5------------|
|---------------|-------------0-|-1----1----1s3-|-3------------|
|
| Gtr VI
| W               W               W               H    Q   Q
|---------------|---------------|---------------|---------15\--|
|---------------|---------------|---------------|--------------|
|---------------|---------------|---------------|--------------|
|---------------|---------------|---------------|--------------|
|---------------|---------------|---------------|--------------|
|---------------|---------------|---------------|--------------|


  Gtr I
  E E  E     E   E        E  E    E     E     E   E      E       E   E   E   E
|------------------------------------|-----------------------------------------|
|------1-----0-----------------------|-----------------------------------------|
|---2------------------------0-------|------------0----------------------------|
|-0-------------------------------3--|--------3----------3-----------5-------5-|
|-------------------------3----------|--1------------------------3-------3-----|
|----------------1-------------------|-----------------------------------------|
|
|                                                   \1/   \1/  \1/
|                                                                ~~~~
|                           |---3---|           |----3-----|
| Q    Q        +S   +S   E  E  E  E    Q       +E   +E    E    Q       +Q
|----13b15====(13)-(13)r13-10-----10-|-----------------------------------------|
|-----------------------------13-----|-13b15===(13)-(13)r==13---13-----(13)\---|
|------------------------------------|-----------------------------------------|
|------------------------------------|-----------------------------------------|
|------------------------------------|-----------------------------------------|
|------------------------------------|-----------------------------------------|


  E E   E     E     E     E     E     E
|-------------------------------------------|
|-------1-----0-----------------------------|
|---2---------------------------0-----------|
|-0-----------------------------------3-----|
|-------------------------3-----------------|
|-------------------1-----------------------|
|
|       |----5----| |----5----| |----6----|
| E S S S S S   S S S S S   S S S S S S S S
|-------------------------------------------|
|-------------------------------------------|
|---0-2S3-3-5---0-3-5-6-7---7-0-9-9-7-6-6-0-|
|-------------------------------------------|
|-------------------------------------------|
|-------------------------------------------|


  E     E     E     E     E E  E   E   E  E     E     E     E   E     E   E
|------------------------------------|-----------------------------------------|
|------------------------------------|----------1-----0------------------------|
|-------------0----------------------|----2---------------------------0--------|
|-------3-----------3-------5------5-|-0----------------------------------3----|
|-1-----------------------3----3-----|--------------------------3--------------|
|------------------------------------|----------------------1------------------|
|
|                         ~
| |----5----| |----5----|
| S S S   S S S S S   S S Q   +E   E  E  S  S S  S S  S  S S  S  S  S S  S  S
|------------------------------------|-----------------------------------------|
|------------------------------------|--18p15---15-18p15---15-18p15---15-18p15-|
|-3-2-0---2-3-5-5-3---2-0-3---(3)s19-|--------17---------17---------17---------|
|------------------------------------|-----------------------------------------|
|------------------------------------|-----------------------------------------|
|------------------------------------|-----------------------------------------|


   E  E E  E     E     E     E     E
|----------------------------------------|
|----------------------------------------|
|-------0--------------------------------|
|-----3----3-----------5-----------5-----|
|--1-------------3-----------3-----------|
|----------------------------------------|
|
|  ~~~
|  Q.      S  S  S  S  S  S  S  S  S  S
|----------------------------------------|
|------------------------15-15-16-18-15--|
|-17------15-15-17-15-17-----------------|
|----------------------------------------|
|----------------------------------------|
|----------------------------------------|


 Chorus
  Am         G    Am                           G    Am
  Gtr III
   H.        Q      W                H.        Q    W
   |         |      |                |         |    |
   /         /      /                /         /    /

  Gtr I
   Q.   Q.   Q      W                Q.   Q.   Q    W
|---------------|----------------|----------------|-----------|
|--5----5----8--|---5------------|---5----5----8--|-5---------|
|--5----5----7--|---5------------|---5----5----7--|-5---------|
|--7----7----9--|---7------------|---7----7----9--|-7---------|
|---------------|----------------|----------------|-----------|
|---------------|----------------|----------------|-----------|
|
| Gtr VI
|                        ~~~                            ~~~
|  Q.   Q.   Q      Q   +H.          Q.   Q.   Q    Q  +H.
|-17------------|-(17)-----------|-(17)-----------|-----------|
|--5----5----3--|---5---(5)------|---5----5----3--|-5--(5)----|
|--5----5----4--|---5---(5)------|---5----5----4--|-5--(5)----|
|--7----7----5--|---7---(7)------|---7----7----5--|-7--(7)----|
|--7----7----5--|---7---(7)------|---7----7----5--|-7--(7)----|
|--5----5----3--|---5---(5)------|---5----5----3--|-5--(5)----|
   W               +W               +W


  Am        G    Am                      G    C/G
  H.        Q    W             H.        Q    W
  |         |    |             |         |    |
  /         /    /             /         /    /

  Q.   Q.   Q    W             Q.   Q.   Q    W
|--------------|-------------|--------------|-----------|
|-5----5----8--|-5-----------|-5----5----8--|-5---------|
|-5----5----7--|-5-----------|-5----5----7--|-5---------|
|-7----7----9--|-7-----------|-7----7----9--|-5---------|
|--------------|-------------|--------------|-----------|
|--------------|-------------|--------------|-----------|
|
|                    ~~~                          ~~~
| Q.   Q.   Q    Q  +H.        Q.   Q.   Q    Q  +H.
|--------------|-------------|--------------|-3--(3)----|

|-5----5----3--|-5--(5)------|-5----5----3--|-1--(1)----|
|-5----5----4--|-5--(5)------|-5----5----4--|-0--(0)----|
|-7----7----5--|-7--(7)------|-7----7----5--|-2--(2)----|
|-7----7----5--|-7--(7)------|-7----7----5--|-3--(3)----|
|-5----5----3--|-5--(5)------|-5----5----3--|-----------|


  Dm              C/G             F               Gm
  Gtr IV
  W               W               W               W
  |               |               |               |
  /               /               /               /

  Gtr VI
                              PM
  Q.   Q.   Q     Q.   Q.   E E   Q.   Q.   E E   W
|-5----5----5\--|---------------|-1----1----1s3-|-3----|
|-6----6----6\--|-5----5----5---|-1----1----1s3-|-3----|
|-7----7----7\--|-5----5----5---|-2----2----2s3-|-3----|
|-7----7----7\--|-5----5----5-0-|-3----3----3s5-|-5----|
|-5----5----5\--|-3----3----3-0-|-3----3----3s5-|-5----|
|---------------|-------------0-|-1----1----1s3-|-3----|


  Dm              C/G             F               Gm
  W               W               W               W
  |               |               |               |
  /               /               /               /

                              PM
  Q.   Q.   Q     Q.   Q.   E E   Q.   Q.   E E   W
|-5----5----5\--|---------------|-1----1----1s3-|-3----|
|-6----6----6\--|-5----5----5---|-1----1----1s3-|-3----|
|-7----7----7\--|-5----5----5---|-2----2----2s3-|-3----|
|-7----7----7\--|-5----5----5-0-|-3----3----3s5-|-5----|
|-5----5----5\--|-3----3----3-0-|-3----3----3s5-|-5----|
|---------------|-------------0-|-1----1----1s3-|-3----|


  DmXII              CX                 FVIII              GmX
  Gtr IV
   W                  W                  W                  W
   |                  |                  |                  |
   /                  /                  /                  /

  Gtr VI
                                    PM
   Q.    Q.    Q      Q.    Q.    E E    Q.    Q.    E E    W
|--5-----5-----5\--|------------------|--1-----1-----1s3-|--3----|
|--6-----6-----6\--|--5-----5-----5---|--1-----1-----1s3-|--3----|
|--7-----7-----7\--|--5-----5-----5---|--2-----2-----2s3-|--3----|
|--7-----7-----7\--|--5-----5-----5-0-|--3-----3-----3s5-|--5----|
|--5-----5-----5\--|--3-----3-----3-0-|--3-----3-----3s5-|--5----|
|------------------|----------------0-|--1-----1-----1s3-|--3----|
|
| Gtr VI
|  ~~~                ~~~
|  Q.    Q.    Q      Q.    Q.    Q      Q.    Q.    Q      W
|-13---------------|-12---------------|-17----13---------|-15----|
|-------15---------|-------13---------|-------------13---|-------|
|-------------14---|-------------12---|------------------|-------|
|------------------|------------------|------------------|-------|
|------------------|------------------|------------------|-------|
|------------------|------------------|------------------|-------|


 Break
  Gtr I
    E  E E E   E    E E E     E  E E E E E E E
|-------------------------|--------------------|
|--------1-0--------------|--------------------|
|------2--------------0---|--------0-----------|
|---0-------------------3-|------3---3---5---5-|
|-------------------3-----|---1--------3---3---|
|--------------1----------|--------------------|
|
|              \2.5
|   ~~~~
|  +H         +H             +W
|-(15)-------(15)---------|-(15)---------------|
|-------------------------|--------------------|
|-------------------------|--------------------|
|-------------------------|--------------------|
|-------------------------|--------------------|
|-------------------------|--------------------|


    E  E E E E E E E     E  E E E E E E E
|--------------------|--------------------|
|--------1-0---------|--------------------|
|------2---------0---|--------0-----------|
|---0--------------3-|------3---3---5---5-|
|--------------3-----|---1--------3---3---|
|------------1-------|--------------------|
|
|  +W                   +W
|-(15)---------------|-(15)---------------|
|--------------------|--------------------|
|--------------------|--------------------|
|--------------------|--------------------|
|--------------------|--------------------|
|--------------------|--------------------|


  Gtr I
    E  E E E E E E E   E E E E E E E E   E E E E E E E E   E E E E E E E E
|--------------------|-----------------|-----------------|-----------------|
|--------1-0---------|-----------------|-----1-0---------|-----------------|
|------2---------0---|-----0-----------|---2---------0---|-----0-----------|
|---0--------------3-|---3---3---5---5-|-0-------------3-|---3---3---5---5-|
|--------------3-----|-1-------3---3---|-----------3-----|-1-------3---3---|
|------------1-------|-----------------|---------1-------|-----------------|
|
|   >
|  +H        H         W                 W                 W
|-(15)---------------|-----------------|-----------------|-----------------|
|--------------------|-----------------|-----------------|-----------------|
|--------------------|-----------------|-----------------|-----------------|
|--------------------|-----------------|-----------------|-----------------|
|--------------------|-----------------|-----------------|-----------------|
|--------------------|-----------------|-----------------|-----------------|


   Outro
    E  E E  E E  E E  E   E  E  E  E  E  E E E
||----------------------|----------------------|
||o------1--0-----------|----------------------|
||-----2-----------0----|-------0--------------|
||--0-----------------3-|----3-----3-----5---5-|
||o--------------3------|-1-----------3----3---|
||------------1---------|----------------------|
|
|   Gtr VI
|   E  E Q    E  E E  E   E +E  E  E +E  E E E
||--1s=3-1----3--3-3--3-|-1-(1)s3--3-(3)-3-3-3-|
||o-1s=3-1----3--3-3--3-|-1-(1)s3--3-(3)-3-3-3-|
||--0----0----0--0-0--0-|-0-(0)----0-(0)-0-0-0-|
||--3s=5-3----5--5-5--5-|-3-(3)s5--5-(5)-5-5-5-|
||o---------------------|----------------------|
||----------------------|----------------------|
|
|   Gtr V
|   E  E E  E E  E E  E   Q     E  Q  Q.
||----22---20---22------|---------22-----------|
||o------------------22-|---------22-----------|
||----------------------|----------------------|
||----------------------|----------------------|
||o---------------------|----------------------|
||----------------------|----------------------|


  1.,2.,3.
  E  E E  E E  E E  E     E   E  E  E  E  E  E E   3x
|---------------------|----------------------------||
|------1--0-----------|---------------------------o||
|----2-----------0----|----------0-----------------||
|-0-----------------3-|-------3-----3-----5----5---||
|--------------3------|---1------------3-----3----o||
|-----------1---------|----------------------------||
|
| E  E Q    E  E E  E     E  +E  E  E +E  E  E E   3x
|-1s=3-1----3--3-3--3-|---1--(1)s3--3-(3)-3--3-3---||
|-1s=3-1----3--3-3--3-|---1--(1)s3--3-(3)-3--3-3--o||
|-0----0----0--0-0--0-|---0--(0)----0-(0)-0--0-0---||
|-3s=5-3----5--5-5--5-|---3--(3)s5--5-(5)-5--5-5---||
|---------------------|---------------------------o||
|---------------------|----------------------------||
|
| E  E E  E E  E E  E    +E   Q     Q     E  E E   3x
|---22---20---22------|----------------------------||
|------------------20-|-(20)-------18-------20----o||
|---------------------|----------------------------||
|---------------------|----------------------------||
|---------------------|---------------------------o||
|---------------------|----------------------------||


  4.
  E  E E  E E  E E  E     E   E  E  E  E  E  E E
|---------------------|---------------------------*|
|------1--0-----------|---------------------------*|
|----2-----------0----|----------0----------------*|
|-0-----------------3-|-------3-----3-----5-------*|
|--------------3------|---1------------3-----3----*|
|-----------1---------|---------------------------*|
|
| E  E Q    E  E E  E     E  +E  E  E +E  E  E E
|-1s=3-1----3--3-3--3-|---1--(1)s3--3-(3)-3--3----*|
|-1s=3-1----3--3-3--3-|---1--(1)s3--3-(3)-3--3----*|
|-0----0----0--0-0--0-|---0--(0)----0-(0)-0--0----*|
|-3s=5-3----5--5-5--5-|---3--(3)s5--5-(5)-5--5----*|
|---------------------|---------------------------*|
|---------------------|---------------------------*|
|
| E  E E  E E  E E  E    +E   Q     Q     E  Q
|---22---20---22------|---------------------------*|
|------------------20-|-(20)-------18-------20----*|
|---------------------|---------------------------*|
|---------------------|---------------------------*|
|---------------------|---------------------------*|
|---------------------|---------------------------*|


Duration Legend
---------------
W - whole; H - half; Q - quarter; E - 8th; S - 16th; T - 32nd;
X - 64th; a - acciaccatura
+ - note tied to previous; . - note dotted; .. - note double dotted
Uncapitalized letters represent notes that are staccato (1/2 duration)
Irregular groupings are notated above the duration line.
Duration letters will always appear directly above the note/fret number it represents the duration for.
Duration letters with no fret number below them represent rests.
Multi-bar rests are notated in the form Wxn, where n is the number of bars to
rest for.  Low melody durations appear below the staff

Tablature Legend
----------------
 h   - hammer-on
 p   - pull-off
 b   - bend
 pb  - pre-bend
 r   - bend release (if no number after the r, then release immediately)
 /\  - slide into or out of (from/to "nowhere")
 s   - legato slide
 S   - shift slide
  - natural harmonic
[n]  - artificial harmonic
n(n) - tapped harmonic
 ~   - vibrato
 tr  - trill
 T   - tap
 TP  - trem. picking
 PM  - palm muting
\n/  - tremolo bar dip; n = amount to dip
 \n  - tremolo bar down
 n/  - tremolo bar up
/n\  - tremolo bar inverted dip
 =   - hold bend; also acts as connecting device for hammers/pulls
 <>  - volume swell (louder/softer)
 x   - on rhythm slash represents muted slash
 o   - on rhythm slash represents single note slash

Misc Legend
-----------
 |  - bar
||  - double bar
||o - repeat start
o|| - repeat end
*|  - double bar (ending)
 :  - bar (freetime)
 $  - Segno
 &  - Coda
Tempo markers -  = BPM(8/16=s8/s16),
    where s8 = swing 8ths, s16 = swing 16ths


********************************************************************************
* Generated using Power Tab Editor by Brad Larsen - http://powertab.guitarnetwork.org *
********************************************************************************
  development and support by
dmitry ivanov