rock
 
|tablatures   |lyrics   |discussion forums   |more tabs @ XGuitar.com

Rush tabs

Mission guitar tab

Mission
                               As recorded by Rush
                      (From the 1986 Album HOLD YOUR FIRE)

Words by Peart
Music by Lee & Lifeson
Transcribed by charlesdbruce@hotmail.com
Last Updated: 2004-03-23

           B                  Esus2                G#m7                  F#
      7 9 9 8 7 7          x 7 9 9 7 0          4 6 4 4 4 4          2 4 4 3
2 2

          E5                    D                    G                   A/G
      x 7 9 9 x x          x x 0 2 3 2          3 2 0 0 3 3          3 x 2 2
2 x

          Bm                  A/C#                E5open                  A
      x 2 4 4 3 2          x 4 2 2 2 x          0 2 2 4 0 0          x 0 2 2
2 x

        B6sus2               Asus2/E              F#sus4                 Bb5
      x x x 4 2 4          x x 2 2 0 x          x x 4 4 2 2          x 1 3 3
x 1

          C#5                  Eb5                  C5                   C6
      x 4 6 6 x 4          x 6 8 8 x 6          x 3 5 5 x 3          x 3 5 2
5 x

          F5                   AV                   G/D                  A/E
     x 8 10 10 x 8         5 7 7 6 5 5          x x x 7 8 7         x x x 9
10 9

          GX                  AXII
    x x x 12 12 10       x x x 14 14 12

Gtr I (E A D G B E) - 'Lifeson 1'
Gtr II (E A D G B E) - 'Lifeson 2'
Gtr III (E A D G B E) - 'Lifeson 3'
Gtr IV (E A D G B E) - 'Marimba'

Intro
  Q=140
4/4
  Gtr I
  Wx15
|---------|
|---------|
|---------|
|---------|
|---------|
|---------|


  Pre-Verse
   B                       Esus2      N.C.
   Gtr I
               >                       >
   W          +W           W          +W
||----------|------------|----------|-----------------|
||----------|------------|-7--------|-(7)-------------|
||-8--------|-(8)--------|-9--------|-(9)-------------|
||-9--------|-(9)--------|-9--------|-(9)-------------|
||-9--------|-(9)--------|-7--------|-(7)-------------|
||-7--------|-(7)--------|----------|-----------------|
|
|  Gtr II
|  W           W           W           E  E E E E E Q
||----------|------------|----------|-----------------|
||----------|------------|----------|--4------------7-|
||----------|------------|----------|---------4---4---|
||----------|------------|----------|-----4-----------|
||----------|------------|----------|-----------------|
||----------|------------|----------|-----------------|


  G#m7                    F#               N.C.             B
                >                           >
   W           +H..       E   +W           +H..             E
|--4---------|-(4)--------2-|-(2)--------|-(2)--------------7-|
|--4---------|-(4)--------2-|-(2)--------|-(2)--------------7-|
|--4---------|-(4)--------3-|-(3)--------|-(3)--------------8-|
|--4---------|-(4)--------4-|-(4)--------|-(4)--------------9-|
|--6---------|-(6)--------4-|-(4)--------|-(4)--------------9-|
|--4---------|-(4)--------2-|-(2)--------|-(2)--------------7-|
|
| +W           +W              W            E   E E E E E Q
|------------|--------------|------------|--------------------|
|-(7)--------|-(7)----------|------------|--4-------------7---|
|------------|--------------|------------|----------4---4-----|
|------------|--------------|------------|------4-------------|
|------------|--------------|------------|--------------------|
|------------|--------------|------------|--------------------|


Verse 1
                                                   B
   >
  +W           +W           Wx5          H..       E
|-(7)--------|-(7)--------|------------|-----------7-|
|-(7)--------|-(7)--------|------------|-----------7-|
|-(8)--------|-(8)--------|------------|-----------8-|
|-(9)--------|-(9)--------|------------|-----------9-|
|-(9)--------|-(9)--------|------------|-----------9-|
|-(7)--------|-(7)--------|------------|-----------7-|
|                                        H..       E
|
|  >
| +W           +W           Wx5          W
|------------|------------|------------|-------------|
|-(7)--------|-(7)--------|------------|-------------|
|------------|------------|------------|-------------|
|------------|------------|------------|-------------|
|------------|------------|------------|-------------|
|------------|------------|------------|-------------|


  B                                       E5
  Gtr I
  +W                  +W                  E E E E E E E E   E E E E E E E E
|-(7)---------------|-(7)---------------|-----------------|-----------------|
|-(7)---------------|-(7)---------------|-----------------|-----------------|
|-(8)---------------|-(8)---------------|-----9-------9---|-----9-------9---|
|-(9)---------------|-(9)---------------|-----9-------9---|-----9-------9---|
|--9--9-9-9-9-9-9-9-|--9--9-9-9-9-9-9-9-|-7-7-7-7-7-7-7-7-|-7-7-7-7-7-7-7---|
|--7--7-7-7-7-7-7-7-|--7--7-7-7-7-7-7-7-|-----------------|-----------------|
   E  E E E E E E E    E  E E E E E E E


  G#m7
  H     E   E  +Q      E  +Q    E  +Q    E  +E
|-4----(4)-(4)------|---------------------------|
|-4-----4---4-------|--4--------4--------4------|
|-4-----4---4-------|--4--------4--------4------|
|-4----(4)-(4)-(4)--|-(4)-(4)--(4)-(4)--(4)-(4)-|
|-6----(6)-(6)-(6)--|-(6)-(6)--(6)-(6)--(6)-(6)-|
|-4----(4)-(4)-(4)--|-(4)-(4)--(4)-(4)--(4)-(4)-|


  F#
  E E E E E E E E   E E E E E E E E
|-----------------|-----------------|
|-----2-------2---|-----2-------2---|
|-----3-------3---|-----3-------3---|
|-4-4-4-4-4-4-4-4-|-4-4-4-4-4-4-4-4-|
|-4-4---4-4-4---4-|-4-4---4-4-4---4-|
|-----------------|-----------------|


  Chorus
   Wx12
||---------|
||---------|
||---------|
||---------|
||---------|
||---------|


  D                       D
  >                       >
  W          +W           W          +W
|-2--------|-(2)--------|-2--------|-(2)----|
|-3--------|-(3)--------|-3--------|-(3)----|
|-2--------|-(2)--------|-2--------|-(2)----|
|-0--------|-(0)--------|-0--------|-(0)----|
|----------|------------|----------|--------|
|----------|------------|----------|--------|


  G          A/G        Bm         A/C#
  W          W          W          W
|-3--------|----------|-2--------|------|
|-3--------|-2--------|-3--------|-2----|
|-0--------|-2--------|-4--------|-2----|
|-0--------|-2--------|-4--------|-2----|
|-2--------|----------|-2--------|-4----|
|-3--------|-3--------|----------|------|


                                               B
  >
  W          +W           W          H..       E
|-2--------|-(2)--------|----------|-----------7--|
|-3--------|-(3)--------|----------|-----------7--|
|-2--------|-(2)--------|----------|-----------8--|
|-0--------|-(0)--------|----------|-----------9--|
|----------|------------|----------|-----------9--|
|----------|------------|----------|-----------7--|


  Verse 2
                                          N.C.
                 >
   +W           +W           +W           E E E E E E Q
||-(7)--------|-(7)--------|-(7)--------|---------------|
||-(7)--------|-(7)--------|-(7)--------|-4-----------7-|
||-(8)--------|-(8)--------|-(8)--------|-------4---4---|
||-(9)--------|-(9)--------|-(9)--------|---4-----------|
||-(9)--------|-(9)--------|-(9)--------|---------------|
||-(7)--------|-(7)--------|-(7)--------|---------------|


                          F#               N.C.
   >                           >
  +W           +H..       E   +W           E E E E E E Q
|------------|------------2-|-(2)--------|----------------|
|-(7)--------|-(7)--------2-|-(2)--------|-4-----------7--|
|------------|------------3-|-(3)--------|-------4---4----|
|------------|------------4-|-(4)--------|---4------------|
|------------|------------4-|-(4)--------|----------------|
|------------|------------2-|-(2)--------|----------------|


                          E5open           N.C.
   >                           >
  +W           +H..       E   +W           E E E E E E Q
|------------|------------0-|-(0)--------|----------------|
|-(7)--------|-(7)--------0-|-(0)--------|-4-----------7--|
|------------|------------4-|-(4)--------|-------4---4----|
|------------|------------2-|-(2)--------|---4------------|
|------------|------------2-|-(2)--------|----------------|
|------------|------------0-|-(0)--------|----------------|


                          B
   >
  +W           +H..       E   +W
|------------|------------2-|-(2)----|
|-(7)--------|-(7)--------2-|-(2)----|
|------------|------------3-|-(3)----|
|------------|------------4-|-(4)----|
|------------|------------4-|-(4)----|
|------------|------------2-|-(2)----|


               Chorus
   >
  +W            W          W          Wx8
|-(2)--------||----------|----------|--------|
|-(2)--------||----------|----------|--------|
|-(3)--------||----------|----------|--------|
|-(4)--------||----------|----------|--------|
|-(4)--------||----------|----------|--------|
|-(2)--------||----------|----------|--------|


    D          A    A          G          A/G
    W          H     H         W          W
||--2--------|--------------||-3--------|------|
||o-3--------|-2-----------o||-3--------|-2----|
||--2--------|-2----18\-----||-0--------|-2----|
||--0--------|-2----19\-----||-0--------|-2----|
||o----------|-0----19\----o||-2--------|------|
||-----------|------17\-----||-3--------|-3----|


  Bm         A/C#       D
  W          W          W
|-2--------|----------|-2----|
|-3--------|-2--------|-3----|
|-4--------|-2--------|-2----|
|-4--------|-2--------|-0----|
|-2--------|-4--------|------|
|----------|----------|------|


  Bridge
   B6sus2Asus2/E     F#sus4   B6sus2    Asus2/E     F#sus4
  5/4
   Gtr III
   E E E  E   E   E  E E Q     E   E  E  E   E   E  E E Q
||-----4-(4)-(4)-(4)-----2--|-(2)-(2)-4-(4)-(4)-(4)-----2--|
||---2--------0-------------|------2---------0-------------|
||-4--------------2----4----|--4-----------------2----4----|
||--------2----------4------|------------2----------4------|
||--------------------------|------------------------------|
||--------------------------|------------------------------|


  B6sus2    Asus2/E     F#sus4   B6sus2    Asus2/E     F#sus4
   E   E  E  E   E   E  E E Q     E   E  E  E   E   E  E E Q
|-(2)-(2)-4-(4)-(4)-(4)-----2--|-(2)-(2)-4-(4)-(4)-(4)-----2--|
|------2---------0-------------|------2---------0-------------|
|--4-----------------2----4----|--4-----------------2----4----|
|------------2----------4------|------------2----------4------|
|------------------------------|------------------------------|
|------------------------------|------------------------------|


  B6sus2    Asus2/E     F#sus4   B6sus2    Asus2/E     F#sus4
   E   E  E  E   E   E  E E Q     E   E  E  E   E   E  E E Q
|-(2)-(2)-4-(4)-(4)-(4)-----2--|-(2)-(2)-4-(4)-(4)-(4)-----2--|
|------2---------0-------------|------2---------0-------------|
|--4-----------------2----4----|--4-----------------2----4----|
|------------2----------4------|------------2----------4------|
|------------------------------|------------------------------|
|------------------------------|------------------------------|


  B6sus2    Asus2/E     F#sus4   B6sus2    Asus2/E     F#sus4
   E   E  E  E   E   E  E E Q     E   E  E  E   E   E  E E Q
|-(2)-(2)-4-(4)-(4)-(4)-----2--|-(2)-(2)-4-(4)-(4)-(4)-----2-|
|------2---------0-------------|------2---------0------------|
|--4-----------------2----4----|--4-----------------2----4---|
|------------2----------4------|------------2----------4-----|
|------------------------------|-----------------------------|
|------------------------------|-----------------------------|


  Bb5   C#5      Eb5   Bb5         C#5             C5
  Gtr I
  E Q   Q.       Q     Q     E Q   H           +E  Q
|-1-----4--------6-----1---|-1-----4-----------(4)-3---|
|-x-----x--------x-----x---|-x-----x-----------(x)-x---|
|-3-----6--------8-----3---|-3-----6-----------(6)-5---|
|-3-----6--------8-----3---|-3-----6-----------(6)-5---|
|-1-----4--------6-----1---|-1-----4-----------(4)-3---|
|--------------------------|---------------------------|
|
| Gtr III
| E E E E  S S E S S E E E   E E E E S S E S S  E  E E
|-----1--------------------|-----1---------------------|
|----------2-2-2-----------|---------2-2-2-------------|
|---3---1--------1-1-1-0h1-|---3---1-------1-1--1--0h1-|
|-3------------------------|-3-------------------------|
|--------------------------|---------------------------|
|--------------------------|---------------------------|


  Bb5   C#5      Eb5   Bb5         C#5
                                              \0.5/
  E Q   Q.       Q     Q     E Q   E +Q      +Q         +Q
|-1-----4--------6-----1---|-1-----4-(4)-----(4)--------(4)---|
|-x-----x--------x-----x---|-x-----x-(x)-----(x)--------(x)---|
|-3-----6--------8-----3---|-3-----6-(6)-----(6)--------(6)---|
|-3-----6--------8-----3---|-3-----6-(6)-----(6)--------(6)---|
|-1-----4--------6-----1---|-1-----4-(4)-----(4)--------(4)---|
|--------------------------|----------------------------------|
|
| E E E E  S S E S S E E E   E E E E  S  S E  S     S E  E E
|-----1--------------------|-----1----------------------------|
|----------2-2-2-----------|----------2--2-2------------------|
|---3---1--------1-1-1-0h1-|---3---1----------1-----1-1--0h1--|
|-3------------------------|-3--------------------------------|
|--------------------------|----------------------------------|
|--------------------------|----------------------------------|


Guitar Break
   ~~~
   Q.      Q      E  Q       Q      Q     Q    Q       H
|--------------------------------|-------------------/18---------|
|--------------------------------|------/18---16-----------------|
|-13-----------------------------|-------------------------------|
|---------11-----15--------/15---|-13----------------------------|
|-------------------13-----------|-------------------------------|
|--------------------------------|-------------------------------|
|
|  E  E E  E S S  E  S S E   E E    E E   E E  S S E   S S E E E
|-------1------------------------|--------1----------------------|
|------------2-2--2--------------|-------------2-2-2-------------|
|-----3----1---------1-1-1---0h1-|----3-----1----------1-1-1-0h1-|
|--3-----------------------------|--3----------------------------|
|--------------------------------|-------------------------------|
|--------------------------------|-------------------------------|


                                      7/4
                           |---3---|    |---3---|
   H..                  E  E  E    E    E  E    E  Q.     +E          H
H
|-16---------------------------------|----------------------------------------------|
|------------------------------------|-11-------------------------------------------|
|------------------------------------|----13---10-13b15==(13)r----------------------|
|----------------------------11---13-|-------------------------------11-------------|
|----------------------11-13---------|----------------------------------------------|
|------------------------------------|----------------------------------------------|
|
|  E   E E E S S E S S  E  E    E       E    E     E       E   S S E  E Q.
   H
|--------1---------------------------|-------------1--------------------------------|
|------------2-2-2-------------------|-------------------------2-2-2----------------|
|------3---1-------1-1--1--0h===1----|-------3-------------1----------1-------------|
|--3---------------------------------|--3-------------------------------------------|
|------------------------------------|----------------------------------------------|
|------------------------------------|----------------------------------------------|


Marimba Interlude
  C6                               C6
5/4
  Gtr IV
  E S S S S S S S S H        S S   S S S S S S S S S S H    S S
|--------------------------------|------------------------------|
|--------------------------------|------------------------------|
|--------------------------------|------------------------------|
|---2-2-4-4-5-5-9------------2-2-|-4-4-5-5-9-9-5-5-7--------2-2-|
|--------------------------------|------------------------------|
|--------------------------------|------------------------------|
|
| Gtr III
| E E   E   E   E   E  Q   Q       E   E   E   E   E   E Q  Q
|--------------------------------|------------------------------|
|-------5------------------------|---------5--------------------|
|---2---------------2-(2)--------|-----2---------------2--------|
|-5-------------5------5---------|-5---------------5------------|
|-----------3----------5---------|-------------3---------5------|
|--------------------------5-----|--------------------------5---|


  C6
  S S S S S S E H E    S S
|--------------------------|
|--------------------------|
|--------------------------|
|-4-4-5-5-9------------2-2-|
|--------------------------|
|--------------------------|
|
| E   E   E   E E E Q  Q
|--------------------------|
|---------5----------------|
|-----2-----------2--------|
|-5-------------5----------|
|-------------3-----5------|
|----------------------5---|


  C6
  S S S +S  S +S  +S  S +S  +S  S +S  S S S S  S  S  S  S
|----------------------------------------------------------|
|----------------------------------------------------------|
|----------------------------------------------------------|
|-4-4-5-(5)-5-(5)-(5)-7-(7)-(7)-9-(9)-7-7-9-9-12-12-14-14--|
|----------------------------------------------------------|
|----------------------------------------------------------|
|
| E   E     E      E     E      E     Q        Q
|----------------------------------------------------------|
|-----------5----------------------------------------------|
|-----2-------------------------2--------------------------|
|-5----------------------5---------------------------------|
|------------------3------------------5--------------------|
|----------------------------------------------5-----------|


  Bridge Reprise (modulated)
   C5     Eb5  F5  C5        Eb5  F5  C5
  5/4
   Gtr IV
    Q   W               W             Q
||--------------------|------------------|
||--------------------|------------------|
||--------------------|------------------|
||-17-----------------|------------------|
||--------------------|------------------|
||--------------------|------------------|
|
|  Gtr I
|   Q.    Q.    Q  Q    Q.   Q.    Q  Q
||--3-----6-----8--3--|-3----6-----8--3--|
||--x-----x-----x--x--|-x----x-----x--x--|
||--5-----8----10--5--|-5----8----10--5--|
||--5-----8----10--5--|-5----8----10--5--|
||--3-----6-----8--3--|-3----6-----8--3--|
||--------------------|------------------|


  Bb5  Eb5  F5  C5         Eb5  F5  C5
  W               Q   W               Q
|-------------------|--------------------|
|-------------------|--------------------|
|-------------------|--------------------|
|-------------------|--------------------|
|-------------------|--------------------|
|-------------------|--------------------|
|
| Q.   Q.    Q  Q     Q.   Q.    Q  Q
|-1----6-----8--3---|-3----6-----8--3----|
|-x----x-----x--x---|-x----x-----x--x----|
|-3----8----10--5---|-5----8----10--5----|
|-3----8----10--5---|-5----8----10--5----|
|-1----6-----8--3---|-3----6-----8--3----|
|-------------------|--------------------|


  Outro
   D
  4/4
   Gtr I
               >
   W          +W           +W           Wx11
||-2--------|-(2)--------|-(2)--------|---------|
||-3--------|-(3)--------|-(3)--------|---------|
||-2--------|-(2)--------|-(2)--------|---------|
||-0--------|-(0)--------|-(0)--------|---------|
||----------|------------|------------|---------|
||----------|------------|------------|---------|


   ~~~~~~~~~~~~~~~~~~~~~~~~~~~~~~~~~~~~~~
   W           W           W           W
|-15--------|-----------|-15--------|-------|
|-----------|-----------|-----------|-------|
|-----------|-14--------|-----------|-14----|
|-----------|-----------|-----------|-------|
|-----------|-----------|-----------|-------|
|-----------|-----------|-----------|-------|


  D                AV               D                AV
  Q   Q    H       Q   Q    H       Q   Q    H       Q   Q    Q    Q
|----------2-----|-5--(5)--(5)----|----------2-----|-5--(5)--(5)--(5)---|
|-3---3---(3)----|-----5---(5)----|-3---3---(3)----|-----5---(5)---5----|
|-2--(2)--(2)----|----------6-----|-2--(2)--(2)----|----------6---------|
|-0--(0)---------|----------------|-0--(0)---------|--------------------|
|----------------|----------------|----------------|--------------------|
|----------------|----------------|----------------|--------------------|


  G          A/G        Bm         A/C#
                        ~~~~~~~~~~~~~
  W          W          W          W
|-3--------|----------|-2--------|------|
|-3--------|-2--------|-3--------|-2----|
|-0--------|-2--------|-4--------|-2----|
|-0--------|-2--------|-4--------|-2----|
|-2--------|----------|-2--------|-4----|
|-3--------|-3--------|----------|------|


  D                AV               D                AV
  Q   Q    H       Q   Q    H       Q   Q    H       Q   Q    Q    Q
|----------2-----|-5--(5)--(5)----|----------2-----|-5--(5)--(5)--------|
|-3---3---(3)----|-----5---(5)----|-3---3---(3)----|-----5---(5)--(5)---|
|-2--(2)--(2)----|----------6-----|-2--(2)--(2)----|----------6---(6)---|
|-0--(0)---------|----------------|-0--(0)---------|---------------7----|
|----------------|----------------|----------------|--------------------|
|----------------|----------------|----------------|--------------------|


  G/D        A/E         GX          AXII
  ~~~~~~~~~~~~~~~~~~~~~~~~~~~~~~~~~~~~~~
  W           W           W           W
|-7--------|--9--------|-10--------|-12----|
|-8--------|-10--------|-12--------|-14----|
|-7--------|--9--------|-12--------|-14----|
|----------|-----------|-----------|-------|
|----------|-----------|-----------|-------|
|----------|-----------|-----------|-------|


                                                    |--3---|
    H     H       E  Q.    H           +Q    +Q     Q  Q   Q
|--------------|----15----15b17=====|=(15)--(15)r--15-14-[14]--|
|-/15----15----|-17-----------------|--------------------------|
|--------------|--------------------|--------------------------|
|--------------|--------------------|--------------------------|
|--------------|--------------------|--------------------------|
|--------------|--------------------|--------------------------|


   +H.         E  E    H.       E  E    H.       E  E
|-(14)--------------|-14-------------|-----------------|
|----------------15-|----------17-15-|-17-------15-----|
|------------/16----|----------------|-------------16--|
|-------------------|----------------|-----------------|
|-------------------|----------------|-----------------|
|-------------------|----------------|-----------------|


   H.       E  E    H    +E   S  S  S  S  S  S         +Q.    +E    H
|-14-------14-15-|-17---(17)-14-15-14----14--------|-------------------|
|----------------|--------------------17----17b19==|==(17)---(17)r-17--|
|----------------|---------------------------------|-------------------|
|----------------|---------------------------------|-------------------|
|----------------|---------------------------------|-------------------|
|----------------|---------------------------------|-------------------|


   E  Q.       Q        +S   +S   E
|------------------------------------|
|-15-17b19----17b19====(17)r(17)-15--|
|------------------------------------|
|------------------------------------|
|------------------------------------|
|------------------------------------|


   E   E  E  Q  Q    S  S    H     +Q.     E
|-------------------------|-------------------|
|-17--14-15-14s10---10h12p|=10----(10)--------|
|-------------------------|--------------/16--|
|-------------------------|-------------------|
|-------------------------|-------------------|
|-------------------------|-------------------|


         ~~~         ~~       ~~         ~~~       ~~~         ~~~~~~~~
   S  S  Q.    S  S  E  S  S  E    S  S  S.  S  S  S.  +S   S  E.  +Q
|-------------------------------|--------------------------------------|
|-15h19p15----15h19p15-15h19p15-|-15h19p15--15h19p15--(15)h19p15--(15)-|
|-------------------------------|--------------------------------------|
|-------------------------------|--------------------------------------|
|-------------------------------|--------------------------------------|
|-------------------------------|--------------------------------------|


         ~~            ~~
   S  S  E     +S   S  E  +S   S  Q   S  S
|----------------------------------------------|
|-12h15p12----(12)h15p12-(12)h15p12--10h12p====|
|----------------------------------------------|
|----------------------------------------------|
|----------------------------------------------|
|----------------------------------------------|


   ~~
                          |--3--|    |--3--|
   H      Q   Q     H     Q  Q  Q    Q  Q  Q  +E   E  S  S  S  S
|------------14--|-17----15-14----|-15-14------------14-15----14--|
|-10----/15------|-------------17-|-------15-(15)-17-------17-----|
|----------------|----------------|-------------------------------|
|----------------|----------------|-------------------------------|
|----------------|----------------|-------------------------------|
|----------------|----------------|-------------------------------|


   |--3--|  |--3--|
   Q  Q  Q  Q  Q  Q    H.         Q     H     Q   E  E    +W
|-14----------------|----------------|-----------------|---------*|
|----17-15-14-15-17-|-17b19----------|-15----14--------|---------*|
|-------------------|------------16--|-----------16-14-|-(14)----*|
|-------------------|----------------|-----------------|---------*|
|-------------------|----------------|-----------------|---------*|
|-------------------|----------------|-----------------|---------*|


Duration Legend
---------------
W - whole; H - half; Q - quarter; E - 8th; S - 16th; T - 32nd; X - 64th; a -
acciaccatura
+ - note tied to previous; . - note dotted; .. - note double dotted
Uncapitalized letters represent notes that are staccato (1/2 duration)
Irregular groupings are notated above the duration line
Duration letters will always appear directly above the note/fret number it
represents the
duration for.  Duration letters with no fret number below them represent
rests.  Multi-
bar rests are notated in the form Wxn, where n is the number of bars to rest
for.  Low
melody durations appear below the staff

Tablature Legend
----------------
h   - hammer-on
p   - pull-off
b   - bend
pb  - pre-bend
r   - bend release (if no number after the r, then release immediately)
/\  - slide into or out of (from/to "nowhere")
s   - legato slide
S   - shift slide
  - natural harmonic
[n]  - artificial harmonic
n(n) - tapped harmonic
~   - vibrato
tr  - trill
T   - tap
TP  - trem. picking
PM  - palm muting
\n/  - tremolo bar dip; n = amount to dip
\n  - tremolo bar down
n/  - tremolo bar up
/n\  - tremolo bar inverted dip
=   - hold bend; also acts as connecting device for hammers/pulls
<>  - volume swell (louder/softer)
x   - on rhythm slash represents muted slash
o   - on rhythm slash represents single note slash

Misc Legend
-----------
|  - bar
||  - double bar
||o - repeat start
o|| - repeat end
*|  - double bar (ending)
:  - bar (freetime)
$  - Segno
&  - Coda
Tempo markers -  = BPM(8/16=s8/s16), where s8 = swing 8ths,
s16 = swing 16ths


***************************************************************************************
* Generated using Power Tab Editor by Brad Larsen -
http://powertab.guitarnetwork.org *
***************************************************************************************
  development and support by
dmitry ivanov