rock
 
|tablatures   |lyrics   |discussion forums   |more tabs @ XGuitar.com

Rush tabs

Lock and Key guitar tab

Rush: Lock and Key
From the album Hold Your Fire (Mercury Records)
Copyright 1987 Core Music Publishing
Music by Lee and Lifeson
Lyrics by Peart

Comments/corrections to Rich Soto 

Transcribed by: Richard J. Soto
Email: lerxst@zeus.jersey.net

Okay everyone!! Break out your old Signature Guitar and your GK's to get
Alex's tinny sound for this one. And don't forget your 5 digital delays! ;)
Thanks to Broon@worldnet.att.net for his helpful corrections.

-4--------4--------2------------------4--------4--------2----------------|----
-4--------4--------2------------------4--------4--------2----------------|----
-4--------6--------4------------------4--------6--------4----------------|----
-6--------4--------4------------------6--------4--------4----------------|----
-6--------4--------2------------------6--------4--------2----------------|----
-4--------6--------2------------------4--------6--------2----------------|----


----------------------------------------|-------------------------------------
----------------------------------------|-------------------------------------
---------8-6-------------8-6------------|-------------------------------------
--6--6-------6---6--6--------6----------|-------------------------------------
-------6-------6------6--------6--------|-------------------------------------
----------------------------------------|-------------------------------------
 (Mute**************************)Play 8x

----------------------------------------------------------------------------|-
----------------------------------------------------------------------------|-
-8-8-------8-8-------6--6-------6--6----------------------------------------|-
-8-8-------8-8-------8--8-------8--8-------8--8-------8--8------------------|-
-6-6--6-6--6-6--6-6--8--8--8-8--8--8--8-8--9--9--9-9--9--9-------------1----|-
-------------------------------------------9--9-------9--9-------2--4-----2-|-
   .  * *    .  * *     .  * *     .  * *     .  * *     .

-4----------4--------2--------4----2------|-----------------------------------
-4----------4--------2--------4----2------|-----------------------------------
-4------4-4-6--------4--------6----4------|-----------------------------------
-6------4-4-4--------4--------6----4------|-----------------------------------
-6------4-4-4--------2--------4----2------|-----------------------------------
-4------4-4-6--------2--------4----2------|-----------------------------------


-4----------4--------2--------4----2--------4----------4------|---------------
-4----------4--------2--------4----2--------4----------4------|---------------
-4------4-4-6--------4--------6----4--------4------4-4-6------|---------------
-6------4-4-4--------4--------6----4--------6------4-4-4------|---------------
-6------4-4-4--------2--------4----2--------6------4-4-4------|---------------
-4------4-4-6--------2--------4----2--------4------4-4-6------|---------------
 Rhy.1

-----0--------0-------0--------0----|-----------|------------|-|------------|-
---0---0----0-------0---0----0------|-----------|------------|0|------------|-
-4--------3-------------------------|-----------|------------|-|------------|-
------------------4--------6--------|-----------|------------|-|------------|-
------------------------------------|-----------|------------|-|------------|-
------------------------------------|-----------|------------|-|------------|-
 Riff-A                               Play Rhy.1  Play Riff-A    Play Riff-A

----4------------9------------4------------9------------|---------------------
----4------------9------------4------------9------------|---------------------
----6-----------11------------6-----------11------------|---------------------
----6-----------11------------4-----------11------------|---------------------
----4------------9------------4------------9------------|---------------------
----4------------9------------6------------9------------|---------------------
 Play 2x

----------------------------------------------------------------------------|-
----------------------------------------------------------------------------|-
-8-8-------8-8-------6--6-------6--6----------------------------------------|-
-8-8-------8-8-------8--8-------8--8-------8--8-------8--8------------------|-
-6-6--6-6--6-6--6-6--8--8--8-8--8--8--8-8--9--9--9-9--9--9-9-9-9-------1----|-
-------------------------------------------9--9-------9--9-------2--4-----2-|-
   .  * *    .  * *     .  * *     .  * *     .  * *     . * * *

-----------|------------|-|-----------|------------|-|------------|-----------
-----------|------------|0|-----------|------------|0|------------|-----------
-----------|------------|-|-----------|------------|-|------------|-----------
-----------|------------|-|-----------|------------|-|------------|-----------
-----------|------------|-|-----------|------------|-|------------|-----------
-----------|------------|-|-----------|------------|-|------------|-----------
 Play Rhy.1  Play Riff-A    Play Rhy.1  Play Riff-A    Play Riff-A

-11-vvvvvv--6-vvvvvv------------------------------|---------------------------
-11-vvvvvv--6-vvvvvv--11-vvvvvv--13-vvv--14-vvvvv-|---------------------------
-14-vvvvvv--6-vvvvvv--11-vvvvvv--13-vvv--13-vvvvv-|---------------------------
-13-vvvvvv--8-vvvvvv--11-vvvvvv--13-vvv--13-vvvvv-|---------------------------
-12-vvvvvv--8-vvvvvv------------------------------|---------------------------
-11-vvvvvv--6-vvvvvv------------------------------|---------------------------
    Bar       Bar        Bar        Bar     Bar

------------------------------------------------------------|-----------------
------------------------------------------------------------|-----------------
------------------------------------------------------------|-----------------
------------------------------------------------------------|-----------------
---------4-6-6vv--------4-6-6vv--------4-6-v----------vvvvv-|-----------------
-4-6-4-6--------4-6-4-6--------4-6-4-6----------------------|-----------------
                                          Bar dwn a tad

------------------------------------------------------------------------------
-b14r--11h14p11h14p11-vvv-11-11-11-11-vvvvv-----------------------------------
--------------------------13-13-11-13-vvvvv-------------3---------------------
-----------------------------------------------------------4/6vvvvvvvv--------
------------------------------------------------------------------------------
----------------------------------------------2--vvv-2------------------------
 Guitar Solo          Bar             Bar           AH AH AH

------------------------------------------------------------------------------
-16-19-16-16-19-16-16-19-19b--vvvv-rvvv--17-18-17-15-------15-16-18-16-15-----
-----------------------------------------------------18-15----------------15--
------------------------------------------------------------------------------
------------------------------------------------------------------------------
------------------------------------------------------------------------------
                            Bar w/bend up&dwn

----------------------------------------------------------------------------|-
----------------------------------------------------------------------------|-
-15-18p15\13-15p13--13b-----r-13-13-13/15-17-18--17-18-20--18-20-20bvvvvvvvr|-
----------------------------------------------------------------------------|-
----------------------------------------------------------------------------|-
----------------------------------------------------------------------------|-
                    AH                                                Bar

-----------|-----0--------0-------0---------0----|-----------|----------------
-----------|---0---0----0-------0---0------0--0--|-----------|----------------
-----------|-4--------3--------------------------|-----------|----------------
-----------|------------------4--------6---------|-----------|----------------
-----------|-------------------------------------|-----------|----------------
-----------|-------------------------------------|-----------|----------------
 Play Rhy.1                                        Play Rhy.1

-----0--------0-------0------------0|-----------|-0---------------------------
---0---0----0-------0---0------0----|-----------|-0---------------------------
-4--------3-------------------------|-----------|-4---------------------------
------------------4--------6--------|-----------|-2---------------------------
------------------------------------|-----------|-2---------------------------
------------------------------------|-----------|-4---------------------------
                                      Play Rhy.1

---------0-------|------------------------------------------------------------
---------0-------|------------------------------------------------------------
-----4-4-4-------|-8--6--8----------8--6--8--------8--6--8----------8--6--8---
-----2-2-2-------|----------6----6-----------6--6-----------6----6------------
-----2-2-2-------|------------------------------------------------------------
-----4-4-4-------|------------------------------------------------------------
                  (Mute******************************************************

----------------------------------------------------|------------------|------
----------------------------------------------------|------------------|------
------8--6--8----------8--6--8--------8--6--8-------|------------------|------
-6--6----------6----6-----------6--6-----------6----|------------------|------
----------------------------------------------------|------------------|------
----------------------------------------------------|------------------|------
 ***********************************************)     Drum Fill

-4-----------------4-----------------2-----------------2--------------------|-
-4---4-4-4-4-4-4---6---6-6-6-6-6-6---2---2-2-2-2-2-2---2---2-2-2-2-2-2------|-
-6---6-6-6-6-6-6---5---5-5-5-5-5-5---3---3-3-3-3-3-3---3---3-3-3-3-3-3------|-
-6---6-6-6-6-6-6---6---6-6-6-6-6-6---4---4-4-4-4-4-4---4---4-4-4-4-4-4------|-
-4---4-4-4-4-4-4---4---4-4-4-4-4-4---4---4-4-4-4-4-4---4---4-4-4-4-4-4------|-
-4---4-4-4-4-4-4---4---4-4-4-4-4-4---2---2-2-2-2-2-2---2---2-2-2-2-2-2------|-
 Rhy.2 Play 2x

-4----------4------2-2--------2--------|------------------------------------|-
-4----------4------2-2--------2--------|------------------------------------|-
-4------4-4-6------4-4--------4--------|------------------------------------|-
-6------4-4-4------4-4--------4--------|------------------------------------|-
-6------4-4-4------2-2--------2--------|------------------------------------|-
-4------4-4-6------2-2--------2--------|------------------------------------|-
 Play 2x                                 Play Rhy.2 2x with fade
  development and support by
dmitry ivanov