rock
 
|tablatures   |lyrics   |discussion forums   |more tabs @ XGuitar.com

Rush tabs

Limbo guitar tab

Rush: Limbo
From the album (Atlantic Records)
Copyright 1996 Core Music Publishing
Music by Lee, Lifeson and Peart

Transcribed by: Richard J. Soto
Email: hrhkinglerxst@home.com

Tab created October 1998

A lot of agressive strumming. Strums may not be exact.
I used video from the tour for some varification & clarification.
This is meant to be a sort of supplemental to the official tab book.

------------|-----------------|-----------------------------------------------
------------|-----------------|-----------------------------------------------
------------|-----------------|-----------------------------------------------
------------|-----------------|-----------------------------------------------
------------|-----------------|-----------------------------------------------
------------|-----------------|-----------------------------------------------
 Snd Effects Bass & Drum Intro

-0--0-0--0--0--0--0-0--0--0--0--0-0--0--0--0--0-0--0--0|----------------------
-0--0-0--0--0--0--0-0--0--0--0--0-0--0--0--0--0-0--0--0|----------------------
-3--3-3--3--3--6--6-6--6--6--8--8-8--8--8--9--9-9--9--9|----------------------
-4--4-4--4--4--7--7-7--7--7--9--9-9--9--9--9--9-9--9--9|----------------------
-4--4-4--4--4--7--7-7--7--7--9--9-9--9--9--7--7-7--7--7|----------------------
-2--2-2--2--2--5--5-5--5--5--7--7-7--7--7--0--0-0--0--0|----------------------
 d  d u  d  d

-0--0-0--0--0--0--0-0--0--0--0--0-0--0--0--0--0-0--0--0|----------------------
-0--0-0--0--0--0--0-0--0--0--0--0-0--0--0--0--0-0--0--0|----------------------
-3--3-3--3--3--8--8-8--8--8--4--4-4--4--4--4--4-4--4--4|----------------------
-4--4-4--4--4--9--9-9--9--9--2--2-2--2--2--5--5-5--5--5|----------------------
-4--4-4--4--4--9--9-9--9--9--2--2-2--2--2--5--5-5--5--5|----------------------
-2--2-2--2--2--7--7-7--7--7--0--0-0--0--0--3--3-3--3--3|----------------------


-0--0-0--0--0--0--0-0--0--0--0--0-0--0--0--0--0-0--0--0|----------------------
-0--0-0--0--0--0--0-0--0--0--0--0-0--0--0--0--0-0--0--0|----------------------
-3--3-3--3--3--6--6-6--6--6--8--8-8--8--8--9--9-9--9--9|----------------------
-4--4-4--4--4--7--7-7--7--7--9--9-9--9--9--9--9-9--9--9|----------------------
-4--4-4--4--4--7--7-7--7--7--9--9-9--9--9--7--7-7--7--7|----------------------
-2--2-2--2--2--5--5-5--5--5--7--7-7--7--7--0--0-0--0--0|----------------------


-0--0-0--0--0--0--0-0--0--0--0--0-0--0--0--10--10-10--10--10|-----------------
-0--0-0--0--0--0--0-0--0--0--0--0-0--0--0--10--10-10--10--10|-----------------
-3--3-3--3--3--8--8-8--8--8--4--4-4--4--4--12--12-12--12--12|-----------------
-4--4-4--4--4--9--9-9--9--9--2--2-2--2--2--12--12-12--12--12|-----------------
-4--4-4--4--4--9--9-9--9--9--2--2-2--2--2--10--10-10--10--10|-----------------
-2--2-2--2--2--7--7-7--7--7--0--0-0--0--0--10--10-10--10--10|-----------------


-0--0-0--0--0--0--0-0--0--0--0--0-0--0--0--0--0-0--0--0|----------------------
-0--0-0--0--0--0--0-0--0--0--0--0-0--0--0--0--0-0--0--0|----------------------
-3--3-3--3--3--6--6-6--6--6--8--8-8--8--8--9--9-9--9--9|----------------------
-4--4-4--4--4--7--7-7--7--7--9--9-9--9--9--9--9-9--9--9|----------------------
-4--4-4--4--4--7--7-7--7--7--9--9-9--9--9--7--7-7--7--7|----------------------
-2--2-2--2--2--5--5-5--5--5--7--7-7--7--7--0--0-0--0--0|----------------------


-0--0-0--0--0--0--0-0--0--0--0--0-0--0--0--0-0--0-0--0--0|--------------------
-0--0-0--0--0--0--0-0--0--0--0--0-0--0--0--0-0--0-0--0--0|--------------------
-3--3-3--3--3--4--4-4--4--4--6--6-6--6--6--4-4--4-4--4--4|--------------------
-4--4-4--4--4--5--5-5--5--5--7--7-7--7--7--2-2--2-2--2--2|--------------------
-4--4-4--4--4--5--5-5--5--5--7--7-7--7--7--2-2--2-2--2--2|--------------------
-2--2-2--2--2--3--3-3--3--3--5--5-5--5--5--0-0--0-0--0--0|--------------------
                                                        .

-----------------------------------------5^-|---------------------------------
--------------------------------------------|---------------------------------
-----12^-7^------5^--------12^-7^-----5^----|---------------------------------
-12^-----7^--5^--------12^-----7^--5^-------|---------------------------------
--------------------------------------------|---------------------------------
--------------------------------------------|---------------------------------
 All natural harmonics...

--------------------------------------5^5^5^5^5^|-----------------------------
------------------------------------------------|-----------------------------
-----12^-7^------5^--------12^-7^---------------|-----------------------------
-12^-----7^--5^--------12^-----7^--5^-----------|-----------------------------
------------------------------------------------|-----------------------------
------------------------------------------------|-----------------------------
 Play 3x

-----------0------0--0--0---0---------------------0--0--0---0--|--------------
-----------0------0--0--0---0---------------------0--0--0---0--|--------------
-----------9------9--9-12---7---------------------9--9-12---7--|--------------
-----------9------9--9-12---7---------------------9--9-12---7--|--------------
-----------7------7--7-10---5---------------------7--7-10---5--|--------------
-0--0---0--0------0--0--0---0----0--3---5--0------0--0--0---0--|--------------
 Play 2x

------------------------------------------------------------------------------
------------------------------------------------------------------------------
------------------------------------------------------------------------------
------------------------------------------------------------------------------
------------------------------------------------------------------------------
------------------------------------------------------------------------------


----------------------------------------|-------------------------------------
-----0--------0---------0----------0----|-------------------------------------
---7--------9---------9---------11---11-|-------------------------------------
-9-----9-11-----11-12-----12-14---------|-------------------------------------
----------------------------------------|-------------------------------------
----------------------------------------|-------------------------------------
  development and support by
dmitry ivanov