rock
 
|tablatures   |lyrics   |discussion forums   |more tabs @ XGuitar.com

Rush tabs

How It Is guitar tab

Band: RUSH
CD: Vapor Trails
Song: How It Is
4-6-03
By Bob Stafford
Rps123s@netscape.net


Play around these chords Bm7;D;Em7;A

For the bridge part alternate D with Dsus2


Intro/chorus                                                               


E||--2------2-2---|-2-----2-------------|
B||--3------3--2--|-3------2-----3-3--3-|
G||--2---2--2-----|-2p0---------------3-|
D||--2h4-2--4-----|-----0------2-2-2--3-|
A||---------------|------------2-2-2----|
E||---------------|---------------------|


  Verse riff                                        
---------------------------------------------------------||
---------------------------------------------------------||
---------------------------------------------------------||
-5-0-2-5--5-55555--0-2-33-3p2p0--------------------------||
---------------------------------------------------------||
---------------------------------------------------------||
  development and support by
dmitry ivanov