rock
 
|tablatures   |lyrics   |discussion forums   |more tabs @ XGuitar.com

Rush tabs

Heresy guitar tab

Author/Artist: Rush
Title: Heresy
Album: Roll The Bones
Transcribed by: Richard J Soto
Email: hrhkinglerxst@home.com

Copyright 1991 Atlantic Recording Corp & Anthem Entertainment
Music by Lee and Lifeson

In My Opinion, the best song on RTB!
Lifeson's sound is absolutely beautiful on this track.
His playing is nearly flawless too IMO.

Anyways, this is a partial tab and isnt completely finished
but the core essentials are complete.

Last Updated: 2001-09-25

--0-----0-0---0--|---------------|-0-----0-0--7--7-0|0--------------|---------
-10-----7-7---9--|---------------|10-----7-7-10-10-7|9--------------|---------
--9-----9-9---9--|---------------|-9-----9-9--9--9-9|9--------------|---------
--9-----9-9---9--|---------------|-9-----9-9--9--9-9|9--------------|---------
-----------------|---------------|------------------|---------------|---------
-----------------|--0-0-0-0-0-0-0|------------------|------0-0-0-0-0|---------
  1 & 2 & 3 & 4 & 1 & 2 & 3 & 4 &  1 & 2 & 3  &  4 & 1 & 2 & 3 & 4 &

-16--16-12----14--|---------------|16---16-12----14--|---------------||-------
------------------|--0-0-0-0-0-0-0|------------------|--0-0-0-0-0-0-0||-------
------------------|---------------|------------------|---------------||-------
------------------|---------------|------------------|---------------||-------
------------------|---------------|------------------|---------------||-------
------------------|---------------|------------------|---------------||-------
  1 & 2  & 3 & 4 & 1 & 2 & 3 & 4 &  1 &  2  & 3 & 4 & 1 & 2 & 3 & 4 &

-0------|-------|-------|-------|-------|-------|-------|--------|------------
-9------|-------|-------|-------|0------|-------|0------|--------|------------
-9------|-------|-------|-------|8------|-------|6------|-------4|------------
-9------|-------|-------|-------|9------|-------|7------|-------2|------------
-7------|-------|-------|-------|9------|-------|7------|-------2|------------
-0------|-------|-------|-------|7------|-------|5------|-------0|------------
 1 2 3 4 1 2 3 4 1 2 3 4 1 2 3 4 1 2 3 4 1 2 3 4 1 2 3 4 1 2 3 4&

--------|-------|-------|-------|0------|-------|0------|-------|-------------
--------|-------|-------|-------|0------|-------|0------|-------|-------------
-4------|-------|-------|-------|8------|-------|6------|-------|-------------
-2------|-------|-------|-------|9------|-------|7------|-------|-------------
-2------|-------|-------|-------|9------|-------|7------|-------|-------------
-0------|-------|-------|-------|7------|-------|5------|-------|-------------


--------|-0-----0-0-0-0--|0------|-------|0------|-------||-------------------
--------|10-----7-7-7-9--|0------|-------|0------|-------||-------------------
-4------|-9-----9-9-9-9--|8------|-------|6------|-------||-------------------
-2------|-9-----9-9-9-9--|9------|-------|7------|-------||-------------------
-2------|----------------|9------|-------|5------|-------||-------------------
-0------|----------------|7------|-------|5------|-------||-------------------
          1 & 2 & 3 & 4 &

----------------|0--------------|----0----------|3-----0--------|-------------
-----3-----0----|--0---0-3-2-0--|------3---3----|--3-----3---3--|-------------
-------2-----2--|----2----------|--2---------2--|----2-----2----|-------------
---2-----2-----2|--------------0|0-------0-----0|---------------|-------------
-0--------------|---------------|---------------|---------------|-------------
----------------|---------------|---------------|---------------|-------------
 1 & 2 & 3 & 4 & 1 & 2 & 3 & 4 & 1 & 2 & 3 & 4 & 1 & 2 & 3 & 4 &

-------0--------|------0--------|---------------|---------------|-------------
-----4---4---0--|----4---4---0--|------0--------|------0---3----|-------------
---4-------4---4|--4-------4----|----------4----|--------------0|-------------
----------------|---------------|----5---5-----5|----5---5---5--|-------------
-2--------------|2--------------|--5---------5--|--5------------|-------------
----------------|---------------|3--------------|3--------------|-------------
 1 & 2 & 3 & 4 & 1 & 2 & 3 & 4 & 1 & 2 & 3 & 4 & 1 & 2 & 3 & 4 &
  development and support by
dmitry ivanov