rock
 
|tablatures   |lyrics   |discussion forums   |more tabs @ XGuitar.com

Rush tabs

Hemispheres guitar tab

Artist:	Rush
Album:	Hemispheres (1978)
Track:	01. Cygnus X-1 Book II Hemispheres
Tab:	guitar tabs

Here all the parts:
1. Prelude
2. Apollo
3. Dionysus - Bringer of Love
4. Armageddon
5. Cygnus
6. The Sphere (A Kind of Dream)


====================== PART I ====================================

Rush - I - Prelude

[Intro] - play first part 4 times

     F#7/11                         A9              Cmaj7
e:----0~---------0~------0~-----|---0----0-0----0-|---0--0----0--0---|
B:----0~---------0~------0~-----|---0--0---0--0---|---0----0--0----0-|
G:o---3~---------3~------3~----o|---6------6------|---0-------0------|
D:o---4~---------4~------4~----o|---7------7------|---2-------2------|
A:----4~---------4~------4~-----|---7------7------|---3-------3------|
E:----2~---------2~------2~-----|---5------5------|------------------|


e:---------------------------------|
B:---------1~---1~----1~-----------|
G:---2~----0~---2~----0~-----------|
D:---3~----2~---2~----2~-----------|
A:---3~----3----0~----3~-----------|
E:---1~----3~---1~----3~-----------|

e:----------------|-------------|-----------------|---------------------|
B:----------------|-------------|-----------------|---------------------|
G:----------------|-------------|-----------------|---------------------|
D:----------------|-------------|-----------------|---------------------|
A:-2~-----------5~|--2~---------|--5--------------|----5----------------|
E:-----2~--3/-----|------2~-3/--|-----5---6s1~----|-------5--6-1-1-1-1-|

[Riff 1]                               [Riff 2a]
   F#7/11                                B11
e:--------0--------|---------0--------|--------0-------|-------0------|
B:------------0----|--------------0---|------------0---|-----------(0)|
G:o---------3-----o|o----------3-----o|o---------8----o|o--------8---o|
D:o---------------o|o----------------o|o--------------o|o------------o|
A:--4--4-----------|---4--4-----------|---9--9---------|--9--9--------|
E:--2--2-----------|---2--2-----------|---7--7---------|--7--7--------|

[Riff 2b]
     A9                                 D6/9             D5
e:---------0-------|---------0-------|---------0------|---------------|
B:-------------0---|-------------(0)-|--------------0-|---------------|
G:o----------6----o|o----------6----o|o----------11--o|---------------|
D:o---------------o|o---------------o|o--------------o|---------------|
A:---7--7----------|---7--7----------|--12-12---------|--12--12--12---|
E:---5--5----------|---5--5----------|--10-10---------|--10--10--10---|

[Riff 3a]                [Riff 3b]
e:--------------------|-----------------------------|
B:--------------------|-----------------------------|
G:--2--0--------------|--4--2--0--------------------|
D:--------4--2--0-----|-----------4--2--0-----------|
A:(12)-------------4--|-----------------------------|
E:(10)----------------|-----------------------------|

[Riff 4]
    Gmaj7        F#7sus4
e:-----------|----------------|
B:--0--0--0--|---0--0--0------|
G:--0--0--0--|---4--4--4------|
D:--4--4--4--|---2--2--2------|
A:--2--2--2--|---4--4--4------|
E:--3--3--3--|---2--2--2--(3)-|

[Riff 5]
e:---------------------------|---------------------------------------|
B:---------------------------|------------------------2~-------------|
G:--------0-----------2------|---------0-----------------0~----------|
D:------4---4-------2---2----|-------4---4------2--------------------|
A:----2-----------4----------|-----2---------------------------------|
E:--3-----------2------------|---3-----------2-----2-----------------|

e:---------------------------|---------------------------------------|
B:---------------------------|------------------------2~-------------|
G:--------0-----------2------|---------0-----------------------------|
D:------4---4-------2---2----|-------4---4------2--------------------|
A:----2-----------4----------|-----2---------------------------------|
E:--3-----------2------------|---3-----------2----2------------------|


Progression:

[Intro] x1

[Riff 1] x1
[Riff 2a] x1
[Riff 1] x1
[Riff 2a] x1
[Riff 2b] x1

[Riff 3a] x1
[Riff 3b] x1

Alternate between [Riff 4] and [Riff 3b] -- 4 times

[Riff 5] x1

[Riff 4] x2
[Riff 3b] x1
[Riff 4] x1
[Riff 3b] x1
[Riff 4] x1

Mid section:

e:-----------------------------------------------------------0~-----|
B:------------------------------0~---------------------0-----0~-----|
G:----------------0~----------0----------0~----------0-------0~-----|
D:--------------2---2~------2----------2---2~------2---------2~-----|
A:------------3-----------3----------3-----------3-----------2~-----|
E:--3-5-3---1-----------1----------1-----------1-------------0~-----|

Harmonics part:

e:---------------------|----------------|--------------|
B:---------------------|----------------|--------------|
G:o-------------------o|----------------|--------------|
D:o-------------------o|-----------<12>-|--------------|
A:---<5>----------<7>--|--<5>-----------|-<5>------<9>-|
E:-------<9>--<7>------|-----<9><7>-----|----<9><7>----|

e:---------------------|----------------|--------------|
B:---------------------|----------------|--------------|
G:o-------------------o|----------------|--------------|
D:o-------------------o|-----------<12>-|--------------|
A:---<5>----------<7>--|--<5>-----------|-<5>------<9>-|
E:-------<9>--<7>------|-----<9><7>-----|----<9><7>----|

[bass enters]
e:---------------------|----------------|--------------|
B:---------------------|----------------|--------------|
G:o-------------------o|----------------|--------------|
D:o-------------------o|-----------<12>-|--------------|
A:---<5>----------<7>--|--<5>-----------|-<5>------<9>-|
E:-------<9>--<7>------|-----<9><7>-----|----<9><7>----|

e:---------------------|----------------|--------------|
B:---------------------|----------------|--------------|
G:o-------------------o|----------------|--------------|
D:o-------------------o|-----------<12>-|--------------|
A:---<5>----------<7>--|--<5>-----------|-<5>------<9>-|
E:-------<9>--<7>------|-----<9><7>-----|----<9><7>----|

[drums enter]
e:-----------------|--------------------|---------------------|
B:-----------------|--------------------|---------------------|
G:o---------------o|--------------------|---------------------|
D:o---------------o|--------------------|----------------<12>-|
A:-<5>--------<7>--|-<5>----------<7>---|--<5>----------------|
E:----<9>-<7>------|-----<9>--<7>-------|------<9>--<7>-------|

e:--------------------|------------------|-----------------|
B:--------------------|------------------|-----------------|
G:--------------------|------------------|-----------------|
D:--------------------|------------------|-----------------|
A:--<5>------<5>-<9>--|-<5>----------<9>-|-<5>-------------|
E:------<9>-----------|-----<9>--<7>-----|-----<9>--<7>----|

Louder/faster part:

   A5       B5                          E    A
e:------------------|---------------|--------------------------------|
B:------------------|---------------|---9-9-9-10-10-10-10-10-9--(0)--|
G:-2-2-2-2--4-4-4-4-|---------------|---9-9-9-9--9--9--9--9--9--(0)--|
D:-2-2-2-2--4-4-4-4-|-2-2-2-2-2-2---|---9-9-9-11-11-11-11-11-9--(0)--|
A:-0-0-0-0--2-2-2-2-|-4-2-4-5-4-2---|--------------------------------|
E:------------------|-------------0~|-0------------------------------|
    D
e:-------------------------------------------------------------------|
B:--7--8-8~-8-8-8--7~-8--7-------------------------------------------|
G:--7--7-7~-7-7-7--7~-7--7-------------------------------------------|
D:--7--7-7~-7-7-7--7~-7--7-------------------------------------------|
A:----------------------------5--4-----------------------------------|
E:---------------------------------5--7.-----------------------------|

    A                  A5       B5
e:-------------------------------------------------------------------|
B:--2--2---2---2--2--------------------------------------------------|
G:--2--2---2---2--2----2-2-2-2--4-4-4-4------------------------------|
D:--2--2---2---2--2----2-2-2-2--4-4-4-4----------------7--6----------|
A:--0--0---0---0--0----0-0-0-0--2-2-2-2-----4.---5.---------7-------|
E:----------------------------------------------------------------0--|

[Riff 6] /w verses as below:
    E      A    F#                  D   A7  Bm A/C#  A5         E
e:--0~----------------------------------------------------------0~---|
B:--0~-----2------------------------3---2---3-------------------0~---|
G:--1~-----2----3~--3-3-3-3-3-3-3---2---0---4--2--2--2-2--------1~---|
D:--2~-----2----4~--4-4-4-4-4-4-4---0---2---4--2--2--2-2--------2----|
A:--2~-----0----4~--4-4-4-4-4-4-4-----------2--4--4--0-0--------2----|
E:--0~----------2~--2-2-2-2-2-2-2-------------------------0~--0-0----|
     A   F#                  D   A7  Bm  A/C#   A
e:-------------------------------------------------------------------|
B:---2-----------------------3---2---3----------2--2-----------------|
G:---2---3~--3-3-3-3-3-3-3---2---0---4---2--2---2--2-----------------|
D:---2---4~--4-4-4-4-4-4-4---0---2---4---2--2---2--2-----------------|
A:---0---4~--4-4-4-4-4-4-4-----------2---4--4---0--0-----------------|
E:-------2~--2-2-2-2-2-2-2-------------------------------------------|

 E           A F#                     D      A7  Bm   A/C#    A5
When our weary world was young, the ...

 E                  A   F#      D      A7  Bm A/C#      A   A
  The Gods of Love and Reason ....

[Riff 7] x2 (shown below)

   (notes in ()'s are overdubbed)
       D               E
e:------------------------(4)---------|
B:----------------------(5)-(5)-------|
G:o-------------------(4)--1--(4)----o|
D:o--------7~---2--------2-----------o|
A:---4-5-7----0---4-5--2--------------|
E:---------------------------4~--0~---|

[Riff 7] x8 w/ lyrics:

They battled through the ages, but still ....

    G      BaddC#        F         A9
e:--3~-3~----------------1~----1----0~-----0----|--3~----3--------------|
B:--3~-3~--7~-----7------1~------1--0~-------0--|--3~------3---7~--7--7-|
G:--4~-4~--8~------------2~---------6~----------|--4~----------8~--8--8-|
D:--5~-5~--11~------11---3~--3------7~--7-------|--5~--5-------11~-11-11|
A:--5~-5~--9~---9--------3~---------7~----------|--5~----------9~--9--9-|
E:--3~-3~--7-------------1~---------5~----------|--3~----------7~--7--7-|

                                 Cmaj7
e:-------1~----1-----0~-----0------0~--0~-------------------------------|
B:--7----1~------1---0~-------0----0~----0~---------1~---1~---1~--------|
G:--8----2~----------6~------------0~----------2~---0~---2~---0~--------|
D:--11---3~--3-------7~--7---------2~----------3~---2~---2~---2~--------|
A:--9----3~----------7~------------3~----------3~---3~---0~---3~--------|
E:--7----1~----------5~------------------------1~---3~---1~---3~--------|

[Riff 1] x1
[Riff 2a] x1

Segue:
                                                               E
e:--0--0----0--0----|-0--0----0--0----|--------------------|---0~----|
B:--0----0--0----0--|-0----0--0----0--|------1~--1~--1-1-1-|---0~----|
G:--6-------6-------|-0-------0-------|--2~--0~--2~--0-0-0-|---1~----|
D:--7-------7-------|-2-------2-------|--3~--2~--2~--2-2-2-|---2~----|
A:--7-------7-------|-3-------3-------|--3~--3~--0~--3-3-3-|---2~----|
E:--5-------5-------|-----------------|--1~--3~--1~--3-3-3-|---0~----|


====================== PART II  ====================================
Rush - II Apollo - Bringer of Wisdom

[Intro]

e:--------------------------------------------------|
B:--------------------------------------------------|
G:------4--2--0-------------------------------------|
D:---------------4--2--0----------------------------|
A:--------------------------------------------------|
E:--------------------------------------------------|

[Riff 1]
e:---------------------------------------|-----------------|
B:--0--0--0----0--0--0----0--0--0----0~--|--0--0--0--0--0~-|
G:--0--0--0----4--4--4----0--0--0----4~--|--0--0--0--0--4~-|
D:--4--4--4----2--2--2----4--4--4----2~--|--4--4--4--4--2~-|
A:--2--2--2----4--4--4----2--2--2----4~--|--2--2--2--2--4~-|
E:--3--3--3--2-2--2--2--3-3--3--3--2-2~--|--3--3--3--3--2~-|

  [Riff 2a]
e:-----------------------------------------------|
B:-------------------------------------------2---|
G:--------0-----------2-----------0------------0-|
D:------4---4-------2---2-------4---4------2-----|
A:----2-----------4-----------2----------4-------|
E:--3-----------2-----------3----------2---------|

  [Riff 2b]
e:------------------------------------------------|
B:--------------------------------------------2~--|
G:--------0-----------2-----------0---------------|
D:------4---4-------2---2-------4---4------2------|
A:----2-----------4-----------2----------4--------|
E:--3-----------2-----------3----------2----------|

[Riff 3]
   Bbmaj7     A7sus4
e:---------------------------------------|----------------|
B:---------------------------------------|----------------|
G:--7--7--7----7--7--7----7--7--7----7~--|--7--7--7--7--7~|
D:--7--7--7----5--5--5----7--7--7----5~--|--7--7--7--7--5~|
A:--5--5--5----7--7--7----5--5--5----7~--|--5--5--5--5--7~|
E:--6--6--6--5-5--5--5--6-6--6--6--5-5~--|--6--6--6--6--5~|

  [Riff 4a]
e:---------------------------------------------|
B:-----------------------------------------5~--|
G:--------0~---------5~---------0~-------------|
D:------7---7~-----5---5~-----7---7~-----5---5~|
A:----5----------7----------5----------7-------|
E:--6----------5----------6----------5---------|

  [Riff 4b]                           Am7
e:--------------------------------------------------|
B:-------------------------------------5~-----------|
G:--------0~----------5~---------0~----5~-----------|
D:------7---7~------5---5~-----7---7~--5~-----------|
A:----5-----------7----------5---------7~-----------|
E:--6-----------5----------6-----------5~-----------|

  [Fill 1]       [Fill 2]
e:--------------|---------|
B:--------------|---------|
G:--------------|---------|
D:---7~--6~-----|---------|
A:----------7~--|---------|
E:--------------|-4-5-7.--|

  [Riff 5a]
e:-----------------------------------------------|
B:----9--9--9------9--9--9------8--8--8--7-8-7---|
G:----9--9--9------9--9--9------7--7--7--7-7-7---|
D:----9--9--9------9--9--9------7--7--7--7-7-7---|
A:---------------------------5-----------------5-|
E:-0------------0--------------------------------|

  [Riff 5b]
e:------------------------------------------------|
B:----9--9--9-----10-10-10-9-----8--8--8--7-8-7---|
G:----9--9--9-----9--9--9--9-----7--7--7--7-7-7---|
D:----9--9--9-----11-11-11-9-----7--7--7--7-7-7---|
A:----------------------------5-----------------5-|
E:-0------------0---------------------------------|

  [Riff 6]
e:---------------------------------------------------------|
B:--2-2--2---2--2------------------------------------------|
G:--2-2--2---2--2----2-2-2-2--4-4-4-4----------------------|
D:--2-2--2---2--2----2-2-2-2--4-4-4-4---2-2-2-2-2-2--------|
A:--0-0--0---0--0----0-0-0-0--2-2-2-2---4-2-4-5-4-2--------|
E:---------------------------------------------------0-----|


Progression:

[Intro] x1

First part of [Riff 1] x1

[Riff 1] x1 w/ lyrics:

"I bring Truth and Understanding, I bring Wit and Wisdom fair,
precious gifts beyond compare.

[Riff 2a] x1

[Riff 2b] x1 w/ lyrics:

We can build a world of wonder. I can make you all aware."

[Riff 3] x1 w/ lyrics:

"I will find you food and shelter, show you fire to keep you warm
Through the endless winter storm.

[Riff 4a] x1

[Riff 4b] x1 w/ lyrics:
                                                    Am7
You can live in grace and comfort in the world that you transform."

     F#7/11                         A9
e:----0~---------0~------0~-----|---0~-----0~--0~---|-0~--0-0-0--0-0-0-0-0-|
B:----0~---------0~------0~-----|---0~-----0~--0~---|-0~--0-0-0--0-0-0-0-0-|
G:o---3~---------3~------3~----o|---6~-----6~--6~---|-6~--6-6-6--3-3-3-3-3-|
D:o---4~---------4~------4~----o|---7~-----7~--7~---|-7~--7-7-7--4-4-4-4-4-|
A:----4~---------4~------4~-----|---7~-----7~--7~---|-7~--7-7-7--4-4-4-4-4-|
E:----2~---------2~------2~-----|---5~-----5~--5~---|-5~--5-5-5--2-2-2-2-2-|

[Fill 1] x1

With [Riff 5a] x1:

  The people were delighted, coming forth to claim their prize. [Fill 2]

With [Riff 6] x1:

  They ran to build their cities and converse among the wise.

With [Riff 5a] x1:
                                                                [Fill 2]
  But one day the streets fell silent, yet they knew not what was wrong.

With [Riff 6] x1:

  The urge to build these fine things, seemed not to be so strong.

With [Riff 5b] x1:

  The wise men were consulted and the bridge of Death was crossed. [Fill 2]

With [Riff 6] x1:

  In quest of Dionysus, to find out what they had lost.

e:-----------------|-------------------------|
B:-----------------|-------------------------|
G:--4-4-4----------|-------------------------|
D:--4-4-4----------|-------------------------|
A:--2-2-2--4-4-4-4-|--6-4-6-7-6-4------------|
E:-----------------|-------------------------|

[Guitar Solo] - I can't tell whether the pick slides are actually pick
        slides, or if Alex is running his hands up and down the neck
        along the strings in a legato fashion.

e:---------------------------------[2]-----------|
B:----2~---5--2---2~-------------------5--2------|
G:----4b6~----4b6-4b6~---------------------------|
D:-----------------------------4-------------4---|
A:--------------------x\---/x--------------------|
E:--------------------x\---/x--------------------|

e:-------------------------------------------------------------------------|
B:--------17b19~-19-17--14h15p14----14-------------------------------------|
G:-------------------------------15----15---15-16-18b20-18b20-18b20---15-16|
D:-------------------------------------------------------------------------|
A:-x\--/x------------------------------------------------------------------|
E:-x\--/x------------------------------------------------------------------|

e:----------------------|-15b17~~---------------------------------------|
B:----------------------|----------14-15-15-17-17b19--15h17p15-14h15p14-|
G:-15h16p15----14-------|-----------------------------------------------|
D:-----------------14~~-|-----------------------------------------------|
A:----------------------|-----------------------------------------------|
E:----------------------|-----------------------------------------------|

e:-------------------------------------------------------------|
B:--14--15--17-17b19-17b19--17~---14-15----14-15-14------------|
G:--------------------------------------16----------16~\-------|
D:-------------------------------------------------------------|
A:-------------------------------------------------------------|
E:-------------------------------------------------------------|

e:------------------|----------------------------|----------------------|
B:--------7---------|----------------------------|----------------------|
G:---6b8~~~~~r6--6--|---4h6p4--3h4p3--1h3p1------|--------3--4-----3----|
D:------------------|------------------------4---|--4--6--------6-------|
A:------------------|----------------------------|----------------------|
E:------------------|----------------------------|----------------------|

e:-----------------------------------------------------------|
B:-------------------------4--------4--5-----4--5--5b7~------|
G:-4-----3--4--6--3--4--6-----4--6--------6------------------|
D:-----------------------------------------------------------|
A:-----------------------------------------------------------|
E:-----------------------------------------------------------|

Segue:

e:---------------------------------------------------------|
B:-------------------------0~-----------------------0------|
G:-----------0~----------0---0~------0~-----------0--------|
D:---------2---2~------2-----------2---2~-------2----------|
A:-------3-----------3-----------3------------3------------|
E:-----1-----------1-----------1------------1--------------|


====================== PART III ====================================
Rush - III Dionysus - Bringer of Love

[Riff 1]
e:---------------------------------------|-----------------|
B:--0--0--0----0--0--0----0--0--0----0~--|--0--0--0--0--0~-|
G:--0--0--0----4--4--4----0--0--0----4~--|--0--0--0--0--4~-|
D:--4--4--4----2--2--2----4--4--4----2~--|--4--4--4--4--2~-|
A:--2--2--2----4--4--4----2--2--2----4~--|--2--2--2--2--4~-|
E:--3--3--3--2-2--2--2--3-3--3--3--2-2~--|--3--3--3--3--2~-|

  [Riff 2a]
e:-----------------------------------------------|
B:-------------------------------------------2---|
G:--------0-----------2-----------0------------0-|
D:------4---4-------2---2-------4---4------2-----|
A:----2-----------4-----------2----------4-------|
E:--3-----------2-----------3----------2---------|

  [Riff 2b]
e:------------------------------------------------|
B:--------------------------------------------2~--|
G:--------0-----------2-----------0---------------|
D:------4---4-------2---2-------4---4------2------|
A:----2-----------4-----------2----------4--------|
E:--3-----------2-----------3----------2----------|

[Riff 3]
   Bbmaj7     A7sus4
e:---------------------------------------|----------------|
B:---------------------------------------|----------------|
G:--7--7--7----7--7--7----7--7--7----7~--|--7--7--7--7--7~|
D:--7--7--7----5--5--5----7--7--7----5~--|--7--7--7--7--5~|
A:--5--5--5----7--7--7----5--5--5----7~--|--5--5--5--5--7~|
E:--6--6--6--5-5--5--5--6-6--6--6--5-5~--|--6--6--6--6--5~|

  [Riff 4a]
e:---------------------------------------------|
B:-----------------------------------------5~--|
G:--------0~---------5~---------0~-------------|
D:------7---7~-----5---5~-----7---7~-----5---5~|
A:----5----------7----------5----------7-------|
E:--6----------5----------6----------5---------|

  [Riff 4b]                           Am7
e:--------------------------------------------------|
B:-------------------------------------5~-----------|
G:--------0~----------5~---------0~----5~-----------|
D:------7---7~------5---5~-----7---7~--5~-----------|
A:----5-----------7----------5---------7~-----------|
E:--6-----------5----------6-----------5~-----------|

  [Fill 1]       [Fill 2]
e:--------------|---------|
B:--------------|---------|
G:--------------|---------|
D:---7~--6~-----|---------|
A:----------7~--|---------|
E:--------------|-4-5-7.--|

  [Riff 5a]
e:-----------------------------------------------|
B:----9--9--9------9--9--9------8--8--8--7-8-7---|
G:----9--9--9------9--9--9------7--7--7--7-7-7---|
D:----9--9--9------9--9--9------7--7--7--7-7-7---|
A:---------------------------5-----------------5-|
E:-0------------0--------------------------------|

  [Riff 5b]
e:------------------------------------------------|
B:----9--9--9-----10-10-10-9-----8--8--8--7-8-7---|
G:----9--9--9-----9--9--9--9-----7--7--7--7-7-7---|
D:----9--9--9-----11-11-11-9-----7--7--7--7-7-7---|
A:----------------------------5-----------------5-|
E:-0------------0---------------------------------|

  [Riff 6]
e:---------------------------------------------------------|
B:--2-2--2---2--2------------------------------------------|
G:--2-2--2---2--2----2-2-2-2--4-4-4-4----------------------|
D:--2-2--2---2--2----2-2-2-2--4-4-4-4---2-2-2-2-2-2--------|
A:--0-0--0---0--0----0-0-0-0--2-2-2-2---4-2-4-5-4-2--------|
E:---------------------------------------------------0-----|


Progression:

First half of [Riff 1] x1

[Riff 1] x1 w/ lyrics:

"I bring Love to give you solace, in the darkness of the night,
in the heart's eternal light.

[Riff 2a] x1

[Riff 2b] x1 w/ lyrics:

You need only trust your feelings. Only love can steer you right."

[Riff 3] x1 w/ lyrics:

"I bring Laughter, I bring Music, I bring joy and I bring tears -
I will soothe your primal fears.

[Riff 4a] x1

[Riff 4b] x1 w/ lyrics:
                                                 Am7
Throw off those chains of Reason and your prison disappears."

     F#7/11                         A9
e:----0~---------0~------0~-----|---0~-----0~--0~---|-0~--0-0-0--0-0-0-0-0-|
B:----0~---------0~------0~-----|---0~-----0~--0~---|-0~--0-0-0--0-0-0-0-0-|
G:o---3~---------3~------3~----o|---6~-----6~--6~---|-6~--6-6-6--3-3-3-3-3-|
D:o---4~---------4~------4~----o|---7~-----7~--7~---|-7~--7-7-7--4-4-4-4-4-|
A:----4~---------4~------4~-----|---7~-----7~--7~---|-7~--7-7-7--4-4-4-4-4-|
E:----2~---------2~------2~-----|---5~-----5~--5~---|-5~--5-5-5--2-2-2-2-2-|

[Fill 1] x1

With [Riff 5a] x1:

  The cities were abandoned, and the forest echoed song. [Fill 2]

With [Riff 6] x1:

  They danced and lived as brothers; they knew Love could not be wrong.

With [Riff 5a] x1:
                                                                [Fill 2]
  Food and wine they had aplenty, and they slept beneath the stars.

With [Riff 6] x1:

  The people were contented, and the Gods watched from afar.

With [Riff 5b] x1:

  But the winter fell upon them and it caught them unprepared, [Fill 2]

With [Riff 6] x1:

  Bringing wolves and cold starvation, and the hearts of men despaired.

e:-----------------|-------------------------|
B:-----------------|-------------------------|
G:--4-4-4----------|-------------------------|
D:--4-4-4----------|-------------------------|
A:--2-2-2--4-4-4-4-|--6-4-6-7-6-4------------|
E:-----------------|-------------------------|

Segue:

e:--0~---0~---0--0~----|---0~--0~--0--0~--|--------------------------|
B:--0~---0~---0--0~----|---0~--0~--0--0~--|--------1~---1~---1~------|
G:--6~---6~---6--6~----|---0~--0~--0--0~--|---2~---0~---2~---0~------|
D:--7~---7~---7--7~----|---2~--2~--2--2~--|---3~---2~---2~---2~------|
A:--7~---7~---7--7~----|---3~--3~--3--3~--|---3~---3~---0~---3~------|
E:--5~---5~---5--5~----|------------------|---1~---3~---1~---3~------|


====================== PART IV  ====================================
Rush - IV Armageddon - "The Battle of Heart and Mind"

[Riff 1] - Freely
e:----------------------|---------------|---------------------|
B:----------------------|---------------|---------------------|
G:--4--4-------------7~-|-4--4----------|o--7--7-------------o|
D:--4-----4--4---5~--7~-|-4----4-4-4--5~|o--7----7-7-8~------o|
A:----------------------|---------------|---------------8~----|
E:----------------------|---------------|---------------------|

[Riff 2] - Freely
e:-----------------|----------------|--------------|------------------|
B:-----------------|----------------|--------------|------------------|
G:-4--4---------7~-|-4--4--------7~-|-4-4----------|o-7--7-----------o|
D:-4----4-4-5~--7~-|-4----4-4-5~-7~-|-4---4-4-4-5~-|o-7----7-7-8~----o|
A:-----------------|----------------|--------------|--------------8~--|
E:-----------------|----------------|--------------|------------------|

[Riff 3]                        [Riff 4]
e:--0~---0------|-0~---0------|--------------------------------------|
B:--0~-----0----|-0~-----0----|-------1~--1~--1~---------------------|
G:--6~----------|-0~----------|---2~--0~--2~--0~---------------------|
D:--7~----------|-2~----------|---3~--2~--2~--2~---------------------|
A:--7~----------|-3~----------|---3~--3~--0~--3~---------------------|
E:--5~----------|-------------|---1~--3~--1~--3~---------------------|

[Riff 5a]                             [Riff 5b]
e:--------0--------|---------0--------|--------0-------|-------0------|
B:------------0----|--------------0---|------------0---|-----------0--|
G:o---------3-----o|o----------3-----o|o---------8----o|o--------8---o|
D:o---------------o|o----------------o|o--------------o|o------------o|
A:--4--4-----------|---4--4-----------|---9--9---------|--9--9--------|
E:--2--2-----------|---2--2-----------|---7--7---------|--7--7--------|

[Riff 5c]                              [Riff 5d]
e:---------0-------|---------0-------|--------0-------|--------0------|
B:-------------0---|-------------0---|----------0-----|----------0----|
G:o----------6----o|o----------6----o|o--------------o|o-------------o|
D:o---------------o|o---------------o|o-7--7------7--o|o--7--7-----7-o|
A:---7--7----------|---7--7----------|--5--5----------|---5--5--------|
E:---5--5----------|---5--5----------|----------------|---------------|


Progression:

[Riff 1] x2
[Riff 3] x1
[Riff 4] x1

[Guitar Interlude] - play the whole thing twice

e:--------------------------------------|-------------------------------|
B:--------------------------------------|-------------------------------|
G:--4--2--0-----------------0--2--0-----|--4--2--0----------------------|
D:-----------4--2--0--2--4-----------4--|-----------4--2--0--2--4--2--0-|
A:--------------------------------------|-------------------------------|
E:--------------------------------------|-------------------------------|

e:--------------------------------------|-------------------------------|
B:--------------------------------------|-------------------------------|
G:--------------------------------------|-------------------------------|
D:----------------------------3--2--0---|----------------------------3-2|
A:-------0-----1--0--3--1--0------------|--------0-----1--0--3--1--0----|
E:-1--3-----3---------------------------|--1--3-----3-------------------|

[Riff 3] x1
[Riff 4] x1

[Riff 2] x1 w/ lyrics:

The Universe divided as the Heart and Mind collided,
With our people left unguided for so many troubled years -
In a cloud of doubts and fears.

With [Riff 3] x1:

Our world was torn asunder into hollow hemispheres. [Riff 4] x1

[Riff 5a] x1

e:---------0-------|--------0-----------|
B:-------------0---|------------0--0.---|
G:o----------8----o|----------8---------|
D:o---------------o|--------------------|
A:---9--9----------|--9--9--------------|
E:---7--7----------|--7--7--------------|

[Riff 2] x1 w/ lyrics:

Some fought themselves, some fought each other.
Most just followed one another, lost and aimless like their brothers.
For their Hearts were so unclear, and the Truth would not appear. [could?]

With [Riff 3] x1:

Their spirits were divided into blinded hemispheres. [Riff 4] x1

[Riff 5a] x1
[Riff 5b] x1
[Riff 5a] x1
[Riff 5b] x1

[Riff 5a] x1 then [Riff 5b] x1 w/ lyrics:

Some who did not fight brought tales of old to light.

[Riff 5a] x1 then [Riff 5b] x1 w/ lyrics:

My Rocinante sailed by night on her final flight.

[Riff 5c] x1 then [Riff 5d] x1 w/ lyrics:

To the heart of Cygnus' fearsome force we set our course.

[Riff 5c] x1 then [Riff 5d] x1 w/ lyrics:

Spiralled through that timeless space to this immortal place.

[Riff 5a] x1
[Riff 5b] x1

Hit A twice [x0222x] then C twice [x32010] (might also be Cmaj7 [x32000])

[Riff 4] x1

Segue:
                       G  Eb   Cm
e:---------------------3---3---3~------------------------------------|
B:---------------------3---4---4~------------------------------------|
G:---------------------4---3---5~------------------------------------|
D:---------------------5---5---5~------------------------------------|
A:-----2-3-5-6-9-10\---5-------3~------------------------------------|
E:-3-4-----------------3---------------------------------------------|

====================== PART V   ====================================
Rush - V Cygnus - Bringer of Balance

[Intro]
    Ebm    Em9       Em
e:---6~----0~--------0~--------------------|
B:---7~----0~--------0~--------------------|
G:---8~----0~--------0~--------------------|
D:---8~----4~--------2~--------------------|
A:---6~----2~--------2~--------------------|
E:---------0~--------0~--------------------|

[Riff 1] (notes in ()'s are overdubbed)
e:-----------------------(4)---------|
B:---------------------(5)-(5)-------|
G:o------------------(4)--1--(4)----o|
D:o-------7~---2--------2-----------o|
A:--4-5-7----0~--4-5--2--------------|
E:--------------------------4~--0~---|


Progression:

[Intro] x1

Keyboard arr. for guitar:

(D)                                     G
   I have mem'ry and awareness, but I have no shape or form.
          Em                      Bm
   As a disembodied spirit, I am dead and yet unborn.
            G                           D
   I have passed into Olympus, as was told in tales of old.
            A                        D
   To the City of Immortals, marble white and purest gold.

A
   I see the Gods in battle rage on high,
  C
   Thunderbolts across the sky.
      F
   I cannot move, I cannot hide.
            E
   I feel a silent scream begin inside.

[Riff 1] x4 w/ lyrics:

  Then all at once the chaos ceased.
  A stillness fell, a sudden peace.
  The Warriors felt my silent cry and stayed their struggle, mystified.

[Riff 1] x1

Play this 2 times with lyrics below:

    E      A    F#                  D   A7  Bm A/C#  A5         E
e:--0~----------------------------------------------------------0~---|
B:--0~-----2------------------------3---2---3-------------------0~---|
G:--1~-----2----3~--3-3-3-3-3-3-3---2---0---4--2--2--2-2--------1~---|
D:--2~-----2----4~--4-4-4-4-4-4-4---0---2---4--2--2--2-2--------2----|
A:--2~-----0----4~--4-4-4-4-4-4-4-----------2--4--4--0-0--------2----|
E:--0~----------2~--2-2-2-2-2-2-2-------------------------0~--0-0----|
     A   F#                  D   A7  Bm  A/C#   A
e:-------------------------------------------------------------------|
B:---2-----------------------3---2---3----------2--2-----------------|
G:---2---3~--3-3-3-3-3-3-3---2---0---4---2--2---2--2-----------------|
D:---2---4~--4-4-4-4-4-4-4---0---2---4---2--2---2--2-----------------|
A:---0---4~--4-4-4-4-4-4-4-----------2---4--4---0--0-----------------|
E:-------2~--2-2-2-2-2-2-2-------------------------------------------|

 E            A F#            D      A7    Bm  A/C# A5
   Apollo was astonished; Dionysus thought me mad.
 E                A  F#                       D        A7   Bm   A
   But they heard my story further, and they wondered, and were sad.
 E                   A F#           D       A7    Bm  A/C# A5
   Looking down from Olympus on a world of doubt and fear.
 E          A   F#              D     A7 Bm  A/C#  A
   Its surface splintered into sorry hemispheres.

[Guitar Solo] - As in previous solo, there may be some legato hand
        sliding that sounds like pick sliding.

(Rhythm guitar plays above riff 2 times)

e:---------------------------------------------------------------------|
B:---------------------------------------------------------------------|
G:-----------11~------6--7~---6--7--9--7--6h7p6------------------------|
D:------2~---------9-----------------------------9-7-------------------|
A:----------------------------------------------------9-9h10p9------7~-|
E:--0~-----------------------------------------------------------------|

e:----------------------------------------------------------------------|
B:------------------x-15b17---15---15--15--14---------------------------|
G:--------------11~----------------------------16--14--14h16p14--12-----|
D:--9p7--[9]b11------------------------------------------------------14-|
A:----------------------------------------------------------------------|
E:----------------------------------------------------------------------|

[Riff 1] x2 w/ lyrics:

They sat a while in silence, then they turned at last to me:

(With lyrics below:)

      G      B      F
e:----3~------------1~------|
B:----3~-----4~-----1~------|
G:----4~-----4~-----2~------|
D:----5~-----4~-----3~------|
A:----5~-----2~-----3~------|
E:----3~------------1~------|

    F#7/11                          A9
e:----0~---------0~------0~-----|---0~-----0~---0-----|
B:----0~---------0~------0~-----|---0~-----0~---0-----|
G:o---3~---------3~------3~----o|---6~-----6~---6-----|
D:o---4~---------4~------4~----o|---7~-----7~---7-----|
A:----4~---------4~------4~-----|---7~-----7~---7-----|
E:----2~---------2~------2~-----|---5~-----5~---5-----|

 G                BaddC#               F              F#7/11   A9
"We will call you Cygnus, The God of Balance you shall be."


[Outro] - strum each chord

    F     C/E       C      G        Bb       F       C        G
e:--1------0--------0------3---|----1--------1-------0--------3------|
B:--1------1--------1------3---|----3--------1-------1--------3------|
G:o-2------0--------0------0---|----3--------2-------0--------0-----o|
D:o-3------2--------2------0---|----3--------3-------2--------0-----o|
A:--3------3--------3------2---|----1--------3-------3--------2------|
E:--1------0---------------3---|-------------1----------------3------|

e:--0~-0--0~-0--|-0~-0--0~-0--|---------------------------------------|
B:--0~--0-0~--0-|-0~--0-0~--0-|------1~--1~--1--1--1.---2~~~----------|
G:--6~----6~----|-0~----0~----|--2~--0~--2~--0--0--0.---2~~~----------|
D:--7~----7~----|-2~----2~----|--3~--2~--2~--2--2--2.---2~~~----------|
A:--7~----7~----|-3~----3~----|--3~--3~--0~--3--3--3.---0~~~----------|
E:--5~----5~----|-------------|--1~--3~--1~--3--3--3.-----------------|
                                                       tr

====================== PART VI  ====================================

Rush - VI - The Sphere (A Kind of Dream)


  We can walk our road toge-ther if our goals
         D                  G           Bm
E--------2------------------7-----------2----
B--------3------------------8-----------3----
G--------2------------------7-----------4----
D--------0------------------0-----------4----
A---------------------------------------2----
E--------------------------------------------

  are all the same ...
  (Bm)                 Asus4    A
E-(2)------------------0-0-0----0--------------
B-(3)------------------3---3----2--------------
G-(4)------------------2---2----2--------------
D-(4)------------------2---2----2--------------
A-(2)------------------0---0----0--------------
E----------------------------------------------

  We can run alone and free if we
  (A)    Cm            G
E-(0)----4-------------3------------------
B-(2)----5-------------3------------------
G-(2)----6-------------0------------------
D-(2)----6-------------0------------------
A-(0)----4-------------2------------------
E----------------------3------------------

  pur-sue a   different           aim
      Esus4   E                   F#
E-----0-------0----------0--0-----2-------------
B-----0-------0----------0--0-----2-------------
G-----2-------1----------2p-1-----3-------------
D-----2-------2----------2--2-----4-------------
A-----2-------2----------2--2-----4-------------
E-----0-------0----------0--0-----2-------------

  Let the       truth of love be lighted let the
 (synth notes) (D .............................)
  (F#)          D                G
E-(2)-----------2----------------3--------------
B-(2)-----------3----------------3--------------
G-(3)-----------2----------------0--------------
D-(4)-----------0----------------0--------------
A-(4)----------------------------2--------------
E-(2)----------------------------3--------------

    love of truth sh-ine clear, sensibility
 (..D................C#...................)
    Bm                   A  Asus2
E---2--------------------0----0------------
B---3--------------------2----0------------
G---4--------------------2----2------------
D---4--------------------2----2------------
A---2--------------------0----0------------
E------------------------------------------

   armed with sense and liberty with the
 (.E....................G..............)
   Cm                   G
E--4--------------------3---------------
B--5--------------------3---------------
G--6--------------------0---------------
D--6--------------------0---------------
A--4--------------------2---------------
E-----------------------3---------------

   heart and mind united in a single  perfect
 (.B..........................A.......B-A-G..)
   Bm                         A Asus2 Cmaj7
E--2--------------------------0----0--0------
B--3--------------------------2----0--0------
G--4--------------------------2----2--0------
D--4--------------------------2----2--2------
A--2--------------------------0----0--3------
E--------------------------------------------

   sphere ...
(..A..............B.............D.........)
   F              G             D
E--1----1---------3----3---3----2------------
B--1-----1--------3-----3-------3------------
G--2--------2-----0-------------2------------
D--3--3---3-------0--0---0------0------------
A--3--------------2--------------------------
E--1--------------3--------------------------
  development and support by
dmitry ivanov