rock
 
|tablatures   |lyrics   |discussion forums   |more tabs @ XGuitar.com

Rush tabs

Ghost Rider guitar tab

Author/Artist: Rush
Title: Ghost Rider
Album: Vapor Trails (Anthem 6682510962)
Transcribed by: Richard J. Soto
Email: hrhkinglerxst@comcast.net

Copyright 2002 Anthem Entertainment Inc & Atlantic Recording Corporation.
Music by Lee and Lifeson

Created June 26, 2002
Version 1.5
Updated July 22 2002

This is a partial tab so far.
The tab *currently* starts at the pre-chorus guitar riff that leads
into the cool chorus riffs.

Corrected a bit after seeing Lifeson at Jones Beach do this song.

I havent started tabbing the intro & verse yet but there are many layers
of guitars there so when I do start tabbing that out, I'll aim for a "live" feel
as to how I would interpret a single guitarist to replicate it as best as one
can playing it live. If Alex plays this on the current tour, it may give us a better
 idea of his interpretation on how one guitarist should "pull-it-off" playing all the
segments live.
I would just stick with the parts that stand out more predominantly.

------------------------------------------------------------------------------
------------------------------------------------------------------------------
------------------------------------------------------------------------------
------------------------------------------------------------------------------
------------------------------------------------------------------------------
------------------------------------------------------------------------------


--------------------|-------------------|-------------------|-----------------
--------------------|-------------------|-------------------|-----------------
------0-------------|-----0-------------|-----0-------------|-----------------
----0------9-9------|---0------9-9------|---0------9-9------|-----------------
--------12-----12-12|-------12-----12---|-------12-----12-12|-----------------
-12-----------------|12-----------------|12-----------------|-----------------
  r      p i

--------------------|-------------------|-------------------||----------------
--------------------|-------------------|-------------------||----------------
------0-------------|-----0-------------|-----0-------------||----------------
----0------9-9------|---0------9-9------|---0------9-9------||----------------
--------12-----12---|-------12-----12-12|-------12-----12---||----------------
-12-----------------|12-----------------|13-----------------||----------------
                                          p      p i

-----------------|----------------|-------------------------------------------
-----------------|----------------|-------------------------------------------
-----0-----------|----0-----------|-------------------------------------------
---0---0---0-----|--0---0---0-----|-------------------------------------------
-5-----3----/8-10|5-----3----/8-10|-------------------------------------------
-----------------|----------------|-------------------------------------------
 r     i     i  r r     i     i  r

-------------------------|------------------------|---------------------------
-------------------------|------------------------|---------------------------
--9--9--9--9--9--9--9--0-|10-10-10-10-10-11-10\---|---------------------------
-10-10-10-10-10-10-10--0-|12-12-12-12-12-12-12\-0-0---------------------------
-11-11-11-11-11-11-11--0-|12-12-12-12-12-12-12\-5-5---------------------------
--9--9--9--9--9--9--9--0-|10-10-10-10-10-10-10\---|---------------------------


-----------------|----------------|-------------------------------------------
-----------------|----------------|-------------------------------------------
-----0-----------|----0-----------|-------------------------------------------
-0-----0---0-----|--0---0---0-----|-------------------------------------------
-5-----3----/8-10|5-----3----/8-10|-------------------------------------------
-----------------|----------------|-------------------------------------------


-------------------------|------------------------|---------------------------
-------------------------|------------------------|---------------------------
--9--9--9--9--9--9--9--9-|10-10-10-10-10-10-10\---|---------------------------
-10-10-10-10-10-10-10-10-|12-12-12-12-12-12-12\---|---------------------------
-11-11-11-11-11-11-11-11-|12-12-12-12-12-12-12\---|---------------------------
--9--9--9--9--9--9--9--9-|10-10-10-10-10-10-10\---|---------------------------


-----------------|----------------|-------------------------------------------
-----------------|----------------|-------------------------------------------
-----0-----------|----0-----------|-------------------------------------------
---0---0---0-----|--0---0---0-----|-------------------------------------------
-5-----3----/8-10|5-----3----/8-10|-------------------------------------------
-----------------|----------------|-------------------------------------------


-------------------------|------------------------|---------------------------
-------------------------|------------------------|---------------------------
--9--9--9--9--9--9--9--0-|10-10-10-10-10-10-10\---|---------------------------
-10-10-10-10-10-10-10--0-|12-12-12-12-12-12-12\-0-0---------------------------
-11-11-11-11-11-11-11--0-|12-12-12-12-12-12-12\-5-5---------------------------
--9--9--9--9--9--9--9--0-|10-10-10-10-10-10-10\---|---------------------------


-----------------|----------------|-------------------------------------------
-----------------|----------------|-------------------------------------------
-----0-----------|----0-----------|-------------------------------------------
-0-----0---0-----|--0---0---0-----|-------------------------------------------
-5-----3----/8-10|5-----3----/8-10|-------------------------------------------
-----------------|----------------|-------------------------------------------


-------------------------|------------------------||--------------------------
-------------------------|------------------------||--------------------------
--9--9--9--9--9--9--9--9-|10-10-10-10-10-10-10----||--------------------------
-10-10-10-10-10-10-10-10-|12-12-12-12-12-12-12----||--------------------------
-11-11-11-11-11-11-11-11-|12-12-12-12-12-12-12----||--------------------------
--9--9--9--9--9--9--9--9-|10-10-10-10-10-10-10----||--------------------------
                                             .

-----------------|---------------------------|--------------------------------
-----------------|------15--------12-13------|--------------------------------
-----------------|---14--------14-------14---|--------------------------------
-----------------|-0---------0---------------|--------------------------------
-----------------|---------------------------|--------------------------------
-----------------|---------------------------|--------------------------------
 Bass Alone
  development and support by
dmitry ivanov