rock
 
|tablatures   |lyrics   |discussion forums   |more tabs @ XGuitar.com

Rush tabs

Dog Years guitar tab

Rush: Dog Years
From the album Test For Echo (Atlantic Records)
Copyright 1996 Core Music Publishing
Music by Lee and Lifeson
Lyrics by Peart

Comments/corrections to Augusto Raffaelli 

Tablature by Augusto Raffaelli, Kenn Chipkin, Matt Scharfglass and Marc Newman


   q = 98

 |
 |Guitars 1 & 2
 |   s s s e   s s s s s e   s s e     s s s e   s s s e   e   e   e
E|-----------------------------------|---------------------------------|
B|-----------------------------------|---------------------------------|
G|4:---------------------------------|-------------------------6-------|
D|4:-3---3-3---3-3-3-3---3---3---3---|-3/5-5-5---5-5-5-5---5---7-------|
A|---3---3-3---3-3-3-3---3---3---3---|-3/5-5-5---5-5-5-5---5---7-------|
E|---0h1-1-1---1-1-1-0h1-1---0h1-1---|-1/3-3-3---3-3-3-3---3---5---0---|

 |
 |Guitars 1 & 2
 | s s s e   s s s s s e   s s s s   s s s e   s s s e   e   h
E|---------------------------------|---------------------------------|
B|---------------------------------|-------------------------r-------|
G|---------------------------------|-------------------------e-------|
D|-3---3-3---3-3-3-3---3---3---3-3-|-3/5-5-5---5-5-5-5-\-----s-------|
A|-3---3-3---3-3-3-3---3---3---3-3-|-3/5-5-5---5-5-5-5-\-----t-------|
E|-0h1-1-1---1-1-1-0h1-1---0h1-1-1-|-1/3-3-3---3-3-3-3-\-0-----------|

 |
 |Guitars 1 & 2
 | s s s e   s s s s s e   s s e     s s s e   s s s e   e   e   e
E|---------------------------------|---------------------------------|
B|---------------------------------|---------------------------------|
G|---------------------------------|-------------------------6-------|
D|-3---3-3---3-3-3-3---3---3---3---|-3/5-5-5---5-5-5-5---5---7-------|
A|-3---3-3---3-3-3-3---3---3---3---|-3/5-5-5---5-5-5-5---5---7-------|
E|-0h1-1-1---1-1-1-0h1-1---0h1-1---|-1/3-3-3---3-3-3-3---3---5---0---|

 |
 |Guitars 1 & 2
 | s s s e   s s s s s e   s s s s   s s s e   s s s e   e   h
E|---------------------------------|---------------------------------|
B|---------------------------------|-------------------------r-------|
G|---------------------------------|-------------------------e-------|
D|-3---3-3---3-3-3-3---3---3---3-3-|-3/5-5-5---5-5-5-5-\-----s-------|
A|-3---3-3---3-3-3-3---3---3---3-3-|-3/5-5-5---5-5-5-5-\-----t-------|
E|-0h1-1-1---1-1-1-0h1-1---0h1-1-1-|-1/3-3-3---3-3-3-3-\-0-----------|

 |
 |Guitars 1 & 2
 | s s s e   s s s s s s s s s s s   s s s E     s s s s e   q
E|---------------------------------|---------------------------------|
B|---------------------------------|-4/6-6-6-----6-6-6-6-8---8---\---|
G|-7/8-8-8---8-8-8-7/8-8-8-7/8-8-8-|-3/5-5-5-----5-5-5-5-7---7---\---|
D|-7/8-8-8---8-8-8-7/8-8-8-7/8-8-8-|-1/3-3-3-----3-3-3-3-5---5---\---|
A|-5/6-6-6---6-6-6-5/6-6-6-5/6-6-6-|---------------------------------|
E|---------------------------------|---------------------------------|

 |
 |Guitars 1 & 2
 | s s s e   s s s s s s s s s s s   s s s E     s s s s e   q
E|---------------------------------|---------------------------------|
B|---------------------------------|-4/6-6-6-----6-6-6-6-8---8---\---|
G|-7/8-8-8---8-8-8-7/8-8-8-7/8-8-8-|-3/5-5-5-----5-5-5-5-7---7---\---|
D|-7/8-8-8---8-8-8-7/8-8-8-7/8-8-8-|-1/3-3-3-----3-3-3-3-5---5---\---|
A|-5/6-6-6---6-6-6-5/6-6-6-5/6-6-6-|---------------------------------|
E|---------------------------------|---------------------------------|

 |
 |Guitars 1 & 2
 | s s s e   s s s s s s s s s s s   s s s E     s s s s e   q
E|---------------------------------|---------------------------------|
B|---------------------------------|-4/6-6-6-----6-6-6-6-8---8---\---|
G|-7/8-8-8---8-8-8-7/8-8-8-7/8-8-8-|-3/5-5-5-----5-5-5-5-7---7---\---|
D|-7/8-8-8---8-8-8-7/8-8-8-7/8-8-8-|-1/3-3-3-----3-3-3-3-5---5---\---|
A|-5/6-6-6---6-6-6-5/6-6-6-5/6-6-6-|---------------------------------|
E|---------------------------------|---------------------------------|

 |
 |Guitars 1 & 2
 | s s s e   s s s s s s s s s s s   s s s E     s s s s e   q
E|---------------------------------|---------------------------------|
B|---------------------------------|-4/6-6-6-----6-6-6-6-8---8---\---|
G|-7/8-8-8---8-8-8-7/8-8-8-7/8-8-8-|-3/5-5-5-----5-5-5-5-7---7---\---|
D|-7/8-8-8---8-8-8-7/8-8-8-7/8-8-8-|-1/3-3-3-----3-3-3-3-5---5---\---|
A|-5/6-6-6---6-6-6-5/6-6-6-5/6-6-6-|---------------------------------|
E|---------------------------------|---------------------------------|

 |
 |Guitars 1 & 2
 | s s s e   s s s s s s s s s s s   s s s e   s s s e   s s q
E|---------------------------------|---------------------------------|
B|---------------------------------|---------------------------------|
G|-3---3-3---3-3-3-3---3-3-3---3-3-|-3/5-5-5---5-5-5-5---7-7-7---\---|
D|-3---3-3---3-3-3-3---3-3-3---3-3-|-3/5-5-5---5-5-5-5---7-7-7---\---|
A|-0h1-1-1---1-1-1-0h1-1-1-0h1-1-1-|-1/3-3-3---3-3-3-3---5-5-5---\---|
E|---------------------------------|---------------------------------|

 |
 |Guitars 1 & 2
 | s s s e   s s s s s s s s s s s   s s s e   s s s e   s s q
E|---------------------------------|---------------------------------|
B|---------------------------------|---------------------------------|
G|-3---3-3---3-3-3-3---3-3-3---3-3-|-3/5-5-5---5-5-5-5---7-7-7---\---|
D|-3---3-3---3-3-3-3---3-3-3---3-3-|-3/5-5-5---5-5-5-5---7-7-7---\---|
A|-0h1-1-1---1-1-1-0h1-1-1-0h1-1-1-|-1/3-3-3---3-3-3-3---5-5-5---\---|
E|---------------------------------|---------------------------------|

 |
 |Guitars 1 & 2
 | s s s e   s s s s s s s s s s s   s s s e   s s s e   s s q
E|---------------------------------|---------------------------------|
B|---------------------------------|---------------------------------|
G|-3---3-3---3-3-3-3---3-3-3---3-3-|-3/5-5-5---5-5-5-5---7-7-7---\---|
D|-3---3-3---3-3-3-3---3-3-3---3-3-|-3/5-5-5---5-5-5-5---7-7-7---\---|
A|-0h1-1-1---1-1-1-0h1-1-1-0h1-1-1-|-1/3-3-3---3-3-3-3---5-5-5---\---|
E|---------------------------------|---------------------------------|

 |
 |Guitars 1 & 2
 | s s s e   s s s s s s s s s s s   s s s e   s s s e   s s q
E|---------------------------------|---------------------------------|
B|---------------------------------|---------------------------------|
G|-3---3-3---3-3-3-3---3-3-3---3-3-|-3/5-5-5---5-5-5-5---7-7-7---\---|
D|-3---3-3---3-3-3-3---3-3-3---3-3-|-3/5-5-5---5-5-5-5---7-7-7---\---|
A|-0h1-1-1---1-1-1-0h1-1-1-0h1-1-1-|-1/3-3-3---3-3-3-3---5-5-5---\---|
E|---------------------------------|---------------------------------|

 |
 |Guitar 1
 |  e   q       e   h                w
E|---------------------------------|---------------------------------|
B|--3---3-------3---3--------------|-3-------------------------------|
G|--0---0-------0---0--------------|-2-------------------------------|
D|--0---0-------0---0--------------|-0-------------------------------|
A|--X---X-------X---X--------------|-0-------------------------------|
E|--3---3-------3---3--------------|-2-------------------------------|
 |
 |Guitar 2
 |  e   q       e   q       q        w
E|---------------------------------|---------------------------------|
B|------12----------12------12--\--|-3-------------------------------|
G|-/12----------12-----------------|-2-------------------------------|
D|---------------------------------|-0-------------------------------|
A|---------------------------------|---------------------------------|
E|---------------------------------|---------------------------------|

 |
 |Guitar 1
 | h               q       q         q       q       s s s s s s s s
E|---------------------------------|---------------------------------|
B|---------------------------------|---------------------------------|
G|-7---------------7-------7-------|---------------------------------|
D|-7---------------7-------7-------|---------------------------------|
A|-5---------------5-------5-------|---------------------------------|
E|---------------------------------|-0-------0-------0-0-0-0-0-0-0-0-|
 |
 |Guitar 2
 | e   q       e   e   e   q         H                       q
E|---------------------------------|---------------------------------|
B|---------------------------------|-9----------------------(9)--\---|
G|-----------------2-------2-------|-9----------------------(9)--\---|
D|-----4-----------4-------4-------|-9----------------------(9)--\---|
A|-5-----------5---5---5---5-------|-7-------------------------------|
E|---------------------------------|-0-------------------------------|

 |
 |Guitar 1
 |  e   q       e   q       q        w
E|---------------------------------|---------------------------------|
B|--3---3-------3---3-------3------|-3-------------------------------|
G|--0---0-------0---0-------0------|-2-------------------------------|
D|--0---0-------0---0-------0------|-0-------------------------------|
A|--X---X-------X---X-------X------|-0-------------------------------|
E|--3---3-------3---3-------3------|-2-------------------------------|
 |
 |Guitar 2
 |  e   q       e   q       q        w
E|---------------------------------|-2-------------------------------|
B|------12----------12------12--\--|-3-------------------------------|
G|-/12----------12-----------------|-2-------------------------------|
D|---------------------------------|-0-------------------------------|
A|---------------------------------|-0-------------------------------|
E|---------------------------------|---------------------------------|

 |
 |Guitar 1
 |  e   q       e   e   e   e   e    q       q       s s e   q
E|---------------------------------|---------------------------------|
B|---------------------------------|-3-------3-------3-3-3---3-------|
G|---------------------------------|-0-------0-------0-0-0---0-------|
D|---------------------------------|-0-------0-------0-0-0---0-------|
A|--4---4-------4---4---4---4---4--|-X-------X-------X-X-X---X-------|
E|--5---5-------5---5---5---5---5--|-3-------3-------3-3-3---3-------|
 |
 |Guitar 2
 |  e   q       e   q       e   e    Q           e   h
E|---------------------------------|---------------------------------|
B|------14----------14------14\-12-|-12---------(12)\11------\-------|
G|-/14----------14----------14\-12-|-12---------(12)\11------\-------|
D|---------------------------------|---------------------------------|
A|---------------------------------|---------------------------------|
E|---------------------------------|---------------------------------|

 |
 |Guitars 1 & 2
 | s s s e   s s s s s e   s s e     s s s e   s s s e   e   e   e
E|---------------------------------|---------------------------------|
B|---------------------------------|---------------------------------|
G|---------------------------------|-------------------------6-------|
D|-3---3-3---3-3-3-3---3---3---3---|-3/5-5-5---5-5-5-5---5---7-------|
A|-3---3-3---3-3-3-3---3---3---3---|-3/5-5-5---5-5-5-5---5---7-------|
E|-0h1-1-1---1-1-1-0h1-1---0h1-1---|-1/3-3-3---3-3-3-3---3---5---0---|

 |
 |Guitars 1 & 2
 | s s s e   s s s s s e   s s s s   s s s e   s s s e   e   h
E|---------------------------------|---------------------------------|
B|---------------------------------|-------------------------r-------|
G|---------------------------------|-------------------------e-------|
D|-3---3-3---3-3-3-3---3---3---3-3-|-3/5-5-5---5-5-5-5-\-----s-------|
A|-3---3-3---3-3-3-3---3---3---3-3-|-3/5-5-5---5-5-5-5-\-----t-------|
E|-0h1-1-1---1-1-1-0h1-1---0h1-1-1-|-1/3-3-3---3-3-3-3-\-0-----------|

 |
 |Guitars 1 & 2
 | s s s e   s s s s s s s s s s s   s s s E     s s s s e   q
E|---------------------------------|---------------------------------|
B|---------------------------------|-4/6-6-6-----6-6-6-6-8---8---\---|
G|-7/8-8-8---8-8-8-7/8-8-8-7/8-8-8-|-3/5-5-5-----5-5-5-5-7---7---\---|
D|-7/8-8-8---8-8-8-7/8-8-8-7/8-8-8-|-1/3-3-3-----3-3-3-3-5---5---\---|
A|-5/6-6-6---6-6-6-5/6-6-6-5/6-6-6-|---------------------------------|
E|---------------------------------|---------------------------------|

 |
 |Guitars 1 & 2
 | s s s e   s s s s s s s s s s s   s s s E     s s s s e   q
E|---------------------------------|---------------------------------|
B|---------------------------------|-4/6-6-6-----6-6-6-6-8---8---\---|
G|-7/8-8-8---8-8-8-7/8-8-8-7/8-8-8-|-3/5-5-5-----5-5-5-5-7---7---\---|
D|-7/8-8-8---8-8-8-7/8-8-8-7/8-8-8-|-1/3-3-3-----3-3-3-3-5---5---\---|
A|-5/6-6-6---6-6-6-5/6-6-6-5/6-6-6-|---------------------------------|
E|---------------------------------|---------------------------------|

 |
 |Guitars 1 & 2
 | s s s e   s s s s s s s s s s s   s s s E     s s s s e   q
E|---------------------------------|---------------------------------|
B|---------------------------------|-4/6-6-6-----6-6-6-6-8---8---\---|
G|-7/8-8-8---8-8-8-7/8-8-8-7/8-8-8-|-3/5-5-5-----5-5-5-5-7---7---\---|
D|-7/8-8-8---8-8-8-7/8-8-8-7/8-8-8-|-1/3-3-3-----3-3-3-3-5---5---\---|
A|-5/6-6-6---6-6-6-5/6-6-6-5/6-6-6-|---------------------------------|
E|---------------------------------|---------------------------------|

 |
 |Guitars 1 & 2
 | s s s e   s s s s s s s s s s s   s s s E     s s s s e   q
E|---------------------------------|---------------------------------|
B|---------------------------------|-4/6-6-6-----6-6-6-6-8---8---\---|
G|-7/8-8-8---8-8-8-7/8-8-8-7/8-8-8-|-3/5-5-5-----5-5-5-5-7---7---\---|
D|-7/8-8-8---8-8-8-7/8-8-8-7/8-8-8-|-1/3-3-3-----3-3-3-3-5---5---\---|
A|-5/6-6-6---6-6-6-5/6-6-6-5/6-6-6-|---------------------------------|
E|---------------------------------|---------------------------------|

 |
 |Guitars 1 & 2
 | s s s e   s s s s s s s s s s s   s s s e   s s s e   s s q
E|---------------------------------|---------------------------------|
B|---------------------------------|---------------------------------|
G|-3---3-3---3-3-3-3---3-3-3---3-3-|-3/5-5-5---5-5-5-5---7-7-7---\---|
D|-3---3-3---3-3-3-3---3-3-3---3-3-|-3/5-5-5---5-5-5-5---7-7-7---\---|
A|-0h1-1-1---1-1-1-0h1-1-1-0h1-1-1-|-1/3-3-3---3-3-3-3---5-5-5---\---|
E|---------------------------------|---------------------------------|

 |
 |Guitars 1 & 2
 | s s s e   s s s s s s s s s s s   s s s e   s s s e   s s q
E|---------------------------------|---------------------------------|
B|---------------------------------|---------------------------------|
G|-3---3-3---3-3-3-3---3-3-3---3-3-|-3/5-5-5---5-5-5-5---7-7-7---\---|
D|-3---3-3---3-3-3-3---3-3-3---3-3-|-3/5-5-5---5-5-5-5---7-7-7---\---|
A|-0h1-1-1---1-1-1-0h1-1-1-0h1-1-1-|-1/3-3-3---3-3-3-3---5-5-5---\---|
E|---------------------------------|---------------------------------|

 |
 |Guitars 1 & 2
 | s s s e   s s s s s s s s s s s   s s s e   s s s e   s s q
E|---------------------------------|---------------------------------|
B|---------------------------------|---------------------------------|
G|-3---3-3---3-3-3-3---3-3-3---3-3-|-3/5-5-5---5-5-5-5---7-7-7---\---|
D|-3---3-3---3-3-3-3---3-3-3---3-3-|-3/5-5-5---5-5-5-5---7-7-7---\---|
A|-0h1-1-1---1-1-1-0h1-1-1-0h1-1-1-|-1/3-3-3---3-3-3-3---5-5-5---\---|
E|---------------------------------|---------------------------------|

 |
 |Guitars 1 & 2
 | s s s e   s s s s s s s s s s s   s s s e   s s s e   s s q
E|---------------------------------|---------------------------------|
B|---------------------------------|---------------------------------|
G|-3---3-3---3-3-3-3---3-3-3---3-3-|-3/5-5-5---5-5-5-5---7-7-7---\---|
D|-3---3-3---3-3-3-3---3-3-3---3-3-|-3/5-5-5---5-5-5-5---7-7-7---\---|
A|-0h1-1-1---1-1-1-0h1-1-1-0h1-1-1-|-1/3-3-3---3-3-3-3---5-5-5---\---|
E|---------------------------------|---------------------------------|
                                                         Guitar 2 out

 |
 |Guitar 1
 | s  s  s  s  s  s  s  s  s  s  s  s  s  s  s  s
E|-------------------------------------------------|
B|-12-12-12-12-12-12-12-12-12-12-12-12-12-12-12-12-|
G|-12-12-12-12-12-12-12-12-12-12-12-12-12-12-12-12-|
D|-12-12-12-12-12-12-12-12-12-12-12-12-12-12-12-12-|
A|-10-10-10-10-10-10-10-10-10-10-10-10-10-10-10-10-|
E|-------------------------------------------------|

 |
 |Guitar 1
 | s s s s s s s s s s s s s s s s
E|---------------------------------|
B|---------------------------------|
G|---------------------------------|
D|-4-4-4-4-4-4-4-4-4-4-4-4-4-4-4-4-|
A|-5-5-5-5-5-5-5-5-5-5-5-5-5-5-5-5-|
E|---------------------------------|

 |
 |Guitar 1
 | s s s s s s s s s s s s s s s s
E|---------------------------------|
B|---------------------------------|
G|---------------------------------|
D|-4-4-4-4-4-4-4-4-4-4-4-4-4-4-4-4-|
A|-5-5-5-5-5-5-5-5-5-5-5-5-5-5-5-5-|
E|---------------------------------|

 |
 |Guitar 1
 | s s s s s s s s s e   s e   e
E|---------------------------------|
B|-----------------9-9---9-9---9---|
G|-----------------9-9---9-9---9---|
D|-9-9-9-9-9-9-9-9-9-9---9-9---9---|
A|-7-7-7-7-7-7-7-7-7-7---7-7---7---|
E|-0-0-0-0-0-0-0-0-----------------|

 |
 |Guitar 1
 | s  s  s  s  s  s  s  s  s  s  s  s  s  s  s  s
E|-------------------------------------------------|
B|-12-12-12-12-12-12-12-12-12-12-12-12-12-12-12-12-|
G|-12-12-12-12-12-12-12-12-12-12-12-12-12-12-12-12-|
D|-12-12-12-12-12-12-12-12-12-12-12-12-12-12-12-12-|
A|-10-10-10-10-10-10-10-10-10-10-10-10-10-10-10-10-|
E|-------------------------------------------------|

 |
 |Guitar 1
 | s s s s s s s s s s s s s s s s
E|---------------------------------|
B|---------------------------------|
G|-2-2-2-2-2-2-2-2-2-2-2-2-2-2-2-2-|
D|-4-4-4-4-4-4-4-4-4-4-4-4-4-4-4-4-|
A|-5-5-5-5-5-5-5-5-5-5-5-5-5-5-5-5-|
E|---------------------------------|

 |
 |Guitar 1
 | s s s s s s s s s s s s s s s s
E|---------------------------------|
B|---------------------------------|
G|---------------------------------|
D|---------------------------------|
A|-4-4-4-4-4-4-4-4-4-4-4-4-4-4-4-4-|
E|-5-5-5-5-5-5-5-5-5-5-5-5-5-5-5-5-|

 |
 |Guitar 1
 | s s s s s s s s  s  s  s  s  s  E
E|---------------10-10-10-10-10-10-10-\--|
B|---------------10-10-10-10-10-10-10-\--|
G|-0-0-0-0-0-0-0-12-12-12-12-12-12-12-\--|
D|-0-0-0-0-0-0-0-12-12-12-12-12-12-12-\--|
A|-X-X-X-X-X-X-X-10-10-10-10-10-10-10-\--|
E|-3-3-3-3-3-3-3-------------------------|

 |
 |Guitar 1
 |  s  s  s  s  s  s  s  s  s  s  s  s  s  s  s  s
E|--------------------------------------------------|
B|--12-12-12-12-12-12-12-12-12-12-12-12-12-12-12-12-|
G|--12-12-12-12-12-12-12-12-12-12-12-12-12-12-12-12-|
D|--12-12-12-12-12-12-12-12-12-12-12-12-12-12-12-12-|
A|--10-10-10-10-10-10-10-10-10-10-10-10-10-10-10-10-|
E|--------------------------------------------------|
 |
 |Guitar 2
 |  e     q           e     q           q
E|--------------------------------------------------|
B|--------12----------------12----------12----\-----|
G|-/12----------------12----12----------12----\-----|
D|--------------------------------------------------|
A|--------------------------------------------------|
E|--------------------------------------------------|

 |
 |Guitar 1
 | s s s s s s s s s s s s s s s s
E|---------------------------------|
B|---------------------------------|
G|---------------------------------|
D|-4-4-4-4-4-4-4-4-4-4-4-4-4-4-4-4-|
A|-5-5-5-5-5-5-5-5-5-5-5-5-5-5-5-5-|
E|---------------------------------|
 |
 |Guitar 2
 | w
E|-2-------------------------------|
B|-3-------------------------------|
G|-2-------------------------------|
D|-0-------------------------------|
A|---------------------------------|
E|---------------------------------|

 |
 |Guitar 1
 |  s s s s s s s s s s s s s s s s
E|----------------------------------|
B|----------------------------------|
G|----------------------------------|
D|--4-4-4-4-4-4-4-4-4-4-4-4-4-4-4-4-|
A|--5-5-5-5-5-5-5-5-5-5-5-5-5-5-5-5-|
E|----------------------------------|
 |
 |Guitar 2
 |  w
E|-(2)-----------------------------|
B|-(3)-----------------------------|
G|-(2)-----------------------------|
D|-(0)-----------------------------|
A|---------------------------------|
E|---------------------------------|

 |
 |Guitar 1
 |  s s s s s s s s s e   s e   e
E|----------------------------------|
B|------------------9-9---9-9---9---|
G|------------------9-9---9-9---9---|
D|--9-9-9-9-9-9-9-9-9-9---9-9---9---|
A|--7-7-7-7-7-7-7-7-7-7---7-7---7---|
E|--0-0-0-0-0-0-0-0-----------------|
 |
 |Guitar 2
 |  h+e                 Q
E|----------------------------------|
B|----------------------------------|
G|-/9------------------(9)----\-----|
D|-/9------------------(9)----\-----|
A|-/7------------------(7)----\-----|
E|----------------------------------|

 |
 |Guitar 1
 |  s  s  s  s  s  s  s  s  s  s  s  s  s  s  s  s
E|--------------------------------------------------|
B|--12-12-12-12-12-12-12-12-12-12-12-12-12-12-12-12-|
G|--12-12-12-12-12-12-12-12-12-12-12-12-12-12-12-12-|
D|--12-12-12-12-12-12-12-12-12-12-12-12-12-12-12-12-|
A|--10-10-10-10-10-10-10-10-10-10-10-10-10-10-10-10-|
E|--------------------------------------------------|
 |
 |Guitar 2
 |  e     q           e     q           q
E|--------------------------------------------------|
B|--------12----------------12---------(12)---\-----|
G|-/12----------------12----12---------(12)---\-----|
D|--------------------------------------------------|
A|--------------------------------------------------|
E|--------------------------------------------------|

 |
 |Guitar 1
 | s s s s s s s s s s s s s s s s
E|---------------------------------|
B|---------------------------------|
G|-2-2-2-2-2-2-2-2-2-2-2-2-2-2-2-2-|
D|-4-4-4-4-4-4-4-4-4-4-4-4-4-4-4-4-|
A|-5-5-5-5-5-5-5-5-5-5-5-5-5-5-5-5-|
E|---------------------------------|
 |
 |Guitar 2
 | H+e                         e
E|---------------------------------|
B|-3---------------------------3-/-|
G|-2---------------------------2-/-|
D|-0-------------------------------|
A|---------------------------------|
E|---------------------------------|

 |
 |Guitar 1
 |  s s s s s s s s s s s s s s s s
E|----------------------------------|
B|----------------------------------|
G|----------------------------------|
D|----------------------------------|
A|--4-4-4-4-4-4-4-4-4-4-4-4-4-4-4-4-|
E|--5-5-5-5-5-5-5-5-5-5-5-5-5-5-5-5-|
 |
 |Guitar 2
 |  q       e   e   q       e   e
E|----------------------------------|
B|-/14------14--14--14------14\-12--|
G|-/14------14--14--14------14\-12--|
D|----------------------------------|
A|----------------------------------|
E|----------------------------------|

 |
 |Guitar 1
 | s s s s s s s s  s  s  s  s  s  E
E|---------------10-10-10-10-10-10-10-\--|
B|---------------10-10-10-10-10-10-10-\--|
G|-0-0-0-0-0-0-0-12-12-12-12-12-12-12-\--|
D|-0-0-0-0-0-0-0-12-12-12-12-12-12-12-\--|
A|-X-X-X-X-X-X-X-10-10-10-10-10-10-10-\--|
E|-3-3-3-3-3-3-3-------------------------|
 |
 |Guitar 2
 | H                            q
E|---------------------------------------|
B|-12---------------------------r--------|
G|-12---------------------------e--------|
D|------------------------------s--------|
A|------------------------------t--------|
E|---------------------------------------|

 |
 |Guitars 1 & 2
 | q       e   q       e   e   e     q       e   q       e   e   e
E|---------------------------------|---------------------------------|
B|---------------------------------|---------------------------------|
G|---------------------------------|-------------0-------------------|
D|---------0---------------3-------|---------------------------------|
A|-------------0---------------0---|---------0-----------3-p-2---0---|
E|-1-------------------1-----------|-3-------------------------------|

 |
 |Guitars 1 & 2
 | q       e   q       e   e   e     q       e   e   s s s s s s s s
E|---------------------------------|---------------------------------|
B|---------------------------------|---------------------------------|
G|---------------------------------|---------------------------------|
D|---------0---------------3-------|-------------0-----------------0-|
A|-------------0---------------0---|---------0-------2/3-3-3-2/3-3---|
E|-1-------------------1-----------|-3-------------------------------|

 |
 |Guitars 1 & 2
 | q       e   q       e   e   e     q       e   q       e   e   e
E|---------------------------------|---------------------------------|
B|---------------------------------|---------------------------------|
G|---------------------------------|-------------0-------------------|
D|---------0---------------3-------|---------------------------------|
A|-------------0---------------0---|---------0-----------3-p-2---0---|
E|-1-------------------1-----------|-3-------------------------------|

 |
 |Guitars 1 & 2
 | q       e   q       e   e   e     q       e   q       e   e   e
E|---------------------------------|---------------------------------|
B|---------------------------------|---------------------------------|
G|---------------------------------|-------------0-------------------|
D|---------0---3-------0-----------|---------------------------------|
A|-------------------------0-------|---------0-----------3-p-2---0---|
E|-1---------------------------1---|-3-------------------------------|

 |
 |Guitars 1 & 2
 | q       e   q       e   e   e     q       e   e   s s s s s s e
E|---------------------------------|---------------------------------|
B|---------------------------------|---------------------------------|
G|---------------------------------|---------0---0-------------------|
D|---------0---------------3-------|---------0---0-----0-3-0---------|
A|-------------0---------------0---|-----------------3-------3p2p0---|
E|-1-------------------1-----------|-3-------------------------------|

 |
 |Guitars 1 & 2
 | q       e   q       e   e   e     q       e   q       e   e   e
E|---------------------------------|---------------------------------|
B|---------------------------------|---------------------------------|
G|---------------------------------|-------------0-------------------|
D|---------0---------------3-------|---------------------------------|
A|-------------0---------------0---|---------0-----------3-p-2---0---|
E|-1-------------------1-----------|-3-------------------------------|

 |
 |Guitars 1 & 2
 | q       e   q       e   e   e     q       e   e   s s s s s s s s
E|---------------------------------|---------------------------------|
B|---------------------------------|---------------------------------|
G|---------------------------------|-------------0-------------------|
D|---------0---------------3-------|-------------------------------0-|
A|-------------0---------------0---|---------0-------2/3-3-3-2/3-3---|
E|-1-------------------1-----------|-3-------------------------------|

 |
 |Guitars 1 & 2
 | q       e   q       e   e   e     q       e   q       e   e   e
E|---------------------------------|---------------------------------|
B|---------------------------------|---------------------------------|
G|---------------------------------|-------------0-------------------|
D|---------0---------------3-------|---------------------------------|
A|-------------0---------------0---|---------0-----------3-p-2---0---|
E|-1-------------------1-----------|-3-------------------------------|

 |
 |Guitars 1 & 2
 | e   e   e   e   e   e   e   e     e   e   e   e   e   e   e   e
E|---------------------------------|---------------------------------|
B|---------1---------------1-------|---------1---------------1-------|
G|-----0-------0-------0-------0---|-----0-------0-------0-------0---|
D|-1---------------1---------------|-3---------------3---------------|
A|---------------------------------|---------------------------------|
E|---------------------------------|---------------------------------|

 |
 |Guitars 1 & 2
 | e   e   e   e   e   e   e   e     e   e   H
E|---------------------------------|---------------------------------|
B|---------1---------------1-------|---------1-----------------------|
G|-----0-------0-------0-------0---|-----0---------------------------|
D|-1---------------1---------------|-3-------------------------------|
A|---------------------------------|---------------------------------|
E|---------------------------------|---------------------------------|
                                                         Guitar 1 out

 |
 |Guitar 2
 | e   e   e   q       e   e   e     e   e   e   q       e   e   e
E|---------------------------------|---------------------------------|
B|---------------------------------|-------------1-------------------|
G|---------0---3-------0-----------|---------0-----------3---2---0---|
D|-----0-------------------0-------|-----0---------------------------|
A|-1---------------------------1---|-3-------------------------------|
E|---------------------------------|---------------------------------|

 |
 |Guitar 2
 | e   e   e   q       e   e   e     e   e   e   e   s s s s e   e
E|---------------------------------|---------------------------------|
B|---------------------------------|---------1-----------------------|
G|---------0---3-------0-----------|---------0-------------0---------|
D|-----0-------------------0-------|-----0-----------2h3-3---2---0---|
A|-1---------------------------1---|-3-----------0-------------------|
E|---------------------------------|---------------------------------|

 |
 |Guitar 2
 | e   e   e   q       e   e   e     e   e   e   q       e   e   e
E|---------------------------------|---------------------------------|
B|---------------------------------|-------------1-------------------|
G|---------0---3-------0-----------|---------0-----------3---2---0---|
D|-----0-------------------0-------|-----0---------------------------|
A|-1---------------------------1---|-3-------------------------------|
E|---------------------------------|---------------------------------|

 |
 |Guitar 2
 | e   e   e   q       e   e   e     e   e   e   e   s s s s e   e
E|---------------------------------|---------------------------------|
B|---------------------------------|---------1-----------------------|
G|---------0---3-------0-----------|---------0-------------0---------|
D|-----0-------------------0-------|-----0-----------2h3-3---2---0---|
A|-1---------------------------1---|-3-----------0-------------------|
E|---------------------------------|---------------------------------|

 |
 |Guitar 2
 | e   e   e   q       e   e   e     e   e   e   q       e   e   e
E|---------------------------------|---------------------------------|
B|---------------------------------|---------------------------------|
G|---------------------------------|---------------------0-----------|
D|---------------------------------|-------------5-----------5-------|
A|-3---3---3---3-------3---3---3---|-5---5---5-------------------5-\-|
E|-1---1---1---1-------1---1---1---|-3---3---3-------------------3-\-|

 |
 |Guitar 2
 | e   e   e   q       e   e   e     q       e   e       e   e   e
E|---------------------------------|---------------------------------|
B|---------------------------------|---------------------------------|
G|-------------0-------------------|---------------------0-----------|
D|-------------3-------3---2---0---|-------------5-----------5-------|
A|-3---3---3-----------------------|-5-------5---------------5---5-\-|
E|-1---1---1-----------------------|-3-------3---------------3---3-\-|

 |
 |Guitars 1 & 2
 | s s s e   s s s s s s s s s s s   s s s E     s s s s e   q
E|---------------------------------|---------------------------------|
B|---------------------------------|-4/6-6-6-----6-6-6-6-8---8---\---|
G|-7/8-8-8---8-8-8-7/8-8-8-7/8-8-8-|-3/5-5-5-----5-5-5-5-7---7---\---|
D|-7/8-8-8---8-8-8-7/8-8-8-7/8-8-8-|-1/3-3-3-----3-3-3-3-5---5---\---|
A|-5/6-6-6---6-6-6-5/6-6-6-5/6-6-6-|---------------------------------|
E|---------------------------------|---------------------------------|

 |
 |Guitars 1 & 2
 | s s s e   s s s s s s s s s s s   s s s E     s s q       q
E|---------------------------------|---------------------------------|
B|---------------------------------|-4/6-6-6-----6-6-6---\---r-------|
G|-7/8-8-8---8-8-8-7/8-8-8-7/8-8-8-|-3/5-5-5-----5-5-5---\---e-------|
D|-7/8-8-8---8-8-8-7/8-8-8-7/8-8-8-|-1/3-3-3-----3-3-3---\---s-------|
A|-5/6-6-6---6-6-6-5/6-6-6-5/6-6-6-|-------------------------t-------|
E|---------------------------------|---------------------------------|

 |
 |Guitars 1 & 2
 | s s s e   s s s s s s s s s s s   s s s E     s s s s e   q
E|---------------------------------|---------------------------------|
B|---------------------------------|-4/6-6-6-----6-6-6-6-8---8---\---|
G|-7/8-8-8---8-8-8-7/8-8-8-7/8-8-8-|-3/5-5-5-----5-5-5-5-7---7---\---|
D|-7/8-8-8---8-8-8-7/8-8-8-7/8-8-8-|-1/3-3-3-----3-3-3-3-5---5---\---|
A|-5/6-6-6---6-6-6-5/6-6-6-5/6-6-6-|---------------------------------|
E|---------------------------------|---------------------------------|

 |
 |Guitars 1 & 2
 | s s s e   s s s s s s s s s s s   s s s E     s s s s e   q
E|---------------------------------|---------------------------------|
B|---------------------------------|-4/6-6-6-----6-6-6-6-8---8---\---|
G|-7/8-8-8---8-8-8-7/8-8-8-7/8-8-8-|-3/5-5-5-----5-5-5-5-7---7---\---|
D|-7/8-8-8---8-8-8-7/8-8-8-7/8-8-8-|-1/3-3-3-----3-3-3-3-5---5---\---|
A|-5/6-6-6---6-6-6-5/6-6-6-5/6-6-6-|---------------------------------|
E|---------------------------------|---------------------------------|

 |
 |Guitars 1 & 2
 | s s s e   s s s s s s s s s s s   s s s E     s s s s e   q
E|---------------------------------|---------------------------------|
B|---------------------------------|-4/6-6-6-----6-6-6-6-8---8---\---|
G|-7/8-8-8---8-8-8-7/8-8-8-7/8-8-8-|-3/5-5-5-----5-5-5-5-7---7---\---|
D|-7/8-8-8---8-8-8-7/8-8-8-7/8-8-8-|-1/3-3-3-----3-3-3-3-5---5---\---|
A|-5/6-6-6---6-6-6-5/6-6-6-5/6-6-6-|---------------------------------|
E|---------------------------------|---------------------------------|

 |
 |Guitars 1 & 2
 | s s s e   s s s s s s s s s s s   s s s E     s s s s e   q
E|---------------------------------|---------------------------------|
B|---------------------------------|-4/6-6-6-----6-6-6-6-8---8---\---|
G|-7/8-8-8---8-8-8-7/8-8-8-7/8-8-8-|-3/5-5-5-----5-5-5-5-7---7---\---|
D|-7/8-8-8---8-8-8-7/8-8-8-7/8-8-8-|-1/3-3-3-----3-3-3-3-5---5---\---|
A|-5/6-6-6---6-6-6-5/6-6-6-5/6-6-6-|---------------------------------|
E|---------------------------------|---------------------------------|

 |
 |Guitars 1 & 2
 | s s s e   s s s s s s s s s s s   s s s e   s s s e   s s q
E|---------------------------------|---------------------------------|
B|---------------------------------|---------------------------------|
G|-3---3-3---3-3-3-3---3-3-3---3-3-|-3/5-5-5---5-5-5-5---7-7-7---\---|
D|-3---3-3---3-3-3-3---3-3-3---3-3-|-3/5-5-5---5-5-5-5---7-7-7---\---|
A|-0h1-1-1---1-1-1-0h1-1-1-0h1-1-1-|-1/3-3-3---3-3-3-3---5-5-5---\---|
E|---------------------------------|---------------------------------|

 |
 |Guitars 1 & 2
 | s s s e   s s s s s s s s s s s   s s s e   s s s e   s s q
E|---------------------------------|---------------------------------|
B|---------------------------------|---------------------------------|
G|-3---3-3---3-3-3-3---3-3-3---3-3-|-3/5-5-5---5-5-5-5---7-7-7---\---|
D|-3---3-3---3-3-3-3---3-3-3---3-3-|-3/5-5-5---5-5-5-5---7-7-7---\---|
A|-0h1-1-1---1-1-1-0h1-1-1-0h1-1-1-|-1/3-3-3---3-3-3-3---5-5-5---\---|
E|---------------------------------|---------------------------------|

 |
 |Guitars 1 & 2
 | s s s e   s s s s s s s s s s s   s s s e   s s s e   s s q
E|---------------------------------|---------------------------------|
B|---------------------------------|---------------------------------|
G|-3---3-3---3-3-3-3---3-3-3---3-3-|-3/5-5-5---5-5-5-5---7-7-7---\---|
D|-3---3-3---3-3-3-3---3-3-3---3-3-|-3/5-5-5---5-5-5-5---7-7-7---\---|
A|-0h1-1-1---1-1-1-0h1-1-1-0h1-1-1-|-1/3-3-3---3-3-3-3---5-5-5---\---|
E|---------------------------------|---------------------------------|

 |
 |Guitars 1 & 2
 | s s s e   s s s s s s s s s s s   s s s e   s s s e   s s q
E|---------------------------------|---------------------------------|
B|---------------------------------|---------------------------------|
G|-3---3-3---3-3-3-3---3-3-3---3-3-|-3/5-5-5---5-5-5-5---7-7-7---\---|
D|-3---3-3---3-3-3-3---3-3-3---3-3-|-3/5-5-5---5-5-5-5---7-7-7---\---|
A|-0h1-1-1---1-1-1-0h1-1-1-0h1-1-1-|-1/3-3-3---3-3-3-3---5-5-5---\---|
E|---------------------------------|---------------------------------|

 |
 |Guitar 1
 |  s  s  s  s  s  s  s  s  s  s  s  s  s  s  s  s
E|--------------------------------------------------|
B|--12-12-12-12-12-12-12-12-12-12-12-12-12-12-12-12-|
G|--12-12-12-12-12-12-12-12-12-12-12-12-12-12-12-12-|
D|--12-12-12-12-12-12-12-12-12-12-12-12-12-12-12-12-|
A|--10-10-10-10-10-10-10-10-10-10-10-10-10-10-10-10-|
E|--------------------------------------------------|
 |
 |Guitar 2
 |  e     q           e     q           q
E|--------------------------------------------------|
B|--------12----------------12----------12----\-----|
G|-/12----------------12----------------------------|
D|--------------------------------------------------|
A|--------------------------------------------------|
E|--------------------------------------------------|

 |
 |Guitar 1
 | s s s s s s s s s s s s s s s s
E|---------------------------------|
B|---------------------------------|
G|---------------------------------|
D|-4-4-4-4-4-4-4-4-4-4-4-4-4-4-4-4-|
A|-5-5-5-5-5-5-5-5-5-5-5-5-5-5-5-5-|
E|---------------------------------|
 |
 |Guitar 2
 | w
E|---------------------------------|
B|-3-------------------------------|
G|-2-------------------------------|
D|-0-------------------------------|
A|---------------------------------|
E|---------------------------------|

 |
 |Guitar 1
 | s s s s s s s s s s s s s s s s
E|---------------------------------|
B|---------------------------------|
G|---------------------------------|
D|-4-4-4-4-4-4-4-4-4-4-4-4-4-4-4-4-|
A|-5-5-5-5-5-5-5-5-5-5-5-5-5-5-5-5-|
E|---------------------------------|
 |
 |Guitar 2
 | e   q       e   e   e   q
E|---------------------------------|
B|---------------------------------|
G|-----------------2-------2-------|
D|-----4-----------4-------4-------|
A|-5-----------5---5---5---5-------|
E|---------------------------------|

 |
 |Guitar 1
 | s s s s s s s s s e   s e   e
E|---------------------------------|
B|-----------------9-9---9-9---9---|
G|-----------------9-9---9-9---9---|
D|-9-9-9-9-9-9-9-9-9-9---9-9---9---|
A|-7-7-7-7-7-7-7-7-7-7---7-7---7---|
E|-0-0-0-0-0-0-0-0-----------------|
 |
 |Guitar 2
 | H                       q
E|---------------------------------|
B|-9----------------------(9)--\---|
G|-9----------------------(9)--\---|
D|-9----------------------(9)--\---|
A|-7-------------------------------|
E|-0-------------------------------|

 |
 |Guitar 1
 |  s  s  s  s  s  s  s  s  s  s  s  s  s  s  s  s
E|--------------------------------------------------|
B|--12-12-12-12-12-12-12-12-12-12-12-12-12-12-12-12-|
G|--12-12-12-12-12-12-12-12-12-12-12-12-12-12-12-12-|
D|--12-12-12-12-12-12-12-12-12-12-12-12-12-12-12-12-|
A|--10-10-10-10-10-10-10-10-10-10-10-10-10-10-10-10-|
E|--------------------------------------------------|
 |
 |Guitar 2
 |  e     q           e     q           q
E|--------------------------------------------------|
B|--------12----------------12----------12----\-----|
G|-/12----------------12----------------------------|
D|--------------------------------------------------|
A|--------------------------------------------------|
E|--------------------------------------------------|

 |
 |Guitar 1
 | s s s s s s s s s s s s s s s s
E|---------------------------------|
B|---------------------------------|
G|-2-2-2-2-2-2-2-2-2-2-2-2-2-2-2-2-|
D|-4-4-4-4-4-4-4-4-4-4-4-4-4-4-4-4-|
A|-5-5-5-5-5-5-5-5-5-5-5-5-5-5-5-5-|
E|---------------------------------|
 |
 |Guitar 2
 | w
E|-2-------------------------------|
B|-3-------------------------------|
G|-2-------------------------------|
D|-0-------------------------------|
A|-0-------------------------------|
E|---------------------------------|

 |
 |Guitar 1
 |  s s s s s s s s s s s s s s s s
E|----------------------------------|
B|----------------------------------|
G|----------------------------------|
D|----------------------------------|
A|--4-4-4-4-4-4-4-4-4-4-4-4-4-4-4-4-|
E|--5-5-5-5-5-5-5-5-5-5-5-5-5-5-5-5-|
 |
 |Guitar 2
 |  e   q       e   q       e   e
E|----------------------------------|
B|------14----------14------14\-12--|
G|-/14----------14----------14\-12--|
D|----------------------------------|
A|----------------------------------|
E|----------------------------------|

 |
 |Guitar 1
 | s s s s s s s s  s  s  s  s  s  E
E|---------------10-10-10-10-10-10-10-\--|
B|---------------10-10-10-10-10-10-10-\--|
G|-0-0-0-0-0-0-0-12-12-12-12-12-12-12-\--|
D|-0-0-0-0-0-0-0-12-12-12-12-12-12-12-\--|
A|-X-X-X-X-X-X-X-10-10-10-10-10-10-10-\--|
E|-3-3-3-3-3-3-3-------------------------|
 |
 |Guitar 2
 | Q           e    h
E|---------------------------------------|
B|-12---------(12)\-11---------\---------|
G|-12---------(12)\-11---------\---------|
D|---------------------------------------|
A|---------------------------------------|
E|---------------------------------------|

 |
 |Guitar 1
 | w                                 w
E|---------------------------------|---------------------------------|
B|---------------------------------|---------------------------------|
G|-3-------------------------------|-5-------------------------------|
D|-3-------------------------------|-5-------------------------------|
A|-1-------------------------------|-3-------------------------------|
E|---------------------------------|---------------------------------|
 |
 |Guitar 2
 | e   e   e   q       e   e   e     e   e   e   q       e   e   e
E|---------------------------------|---------------------------------|
B|---------------------------------|-------------1-------------------|
G|---------0---3-------0-----------|---------0-----------3---2---0---|
D|-----0-------------------0-------|-----0---------------------------|
A|-1---------------------------1---|-3-------------------------------|
E|---------------------------------|---------------------------------|

 |
 |Guitar 1
 | w                                 w
E|---------------------------------|---------------------------------|
B|---------------------------------|---------------------------------|
G|-3-------------------------------|-5-------------------------------|
D|-3-------------------------------|-5-------------------------------|
A|-1-------------------------------|-3-------------------------------|
E|---------------------------------|---------------------------------|
 |
 |Guitar 2
 | e   e   e   q       e   e   e     e   e   e   e   s s s s e   e
E|---------------------------------|---------------------------------|
B|---------------------------------|---------1-----------------------|
G|---------0---3-------0-----------|---------0-------------0---------|
D|-----0-------------------0-------|-----0-----------2h3-3---2---0---|
A|-1---------------------------1---|-3-----------0-------------------|
E|---------------------------------|---------------------------------|

 |
 |Guitar 1
 | w                                 w
E|---------------------------------|---------------------------------|
B|---------------------------------|---------------------------------|
G|-3-------------------------------|-5-------------------------------|
D|-3-------------------------------|-5-------------------------------|
A|-1-------------------------------|-3-------------------------------|
E|---------------------------------|---------------------------------|
 |
 |Guitar 2
 | e   e   e   q       e   e   e     e   e   e   q       e   e   e
E|---------------------------------|---------------------------------|
B|---------------------------------|-------------1-------------------|
G|---------0---3-------0-----------|---------0-----------3---2---0---|
D|-----0-------------------0-------|-----0---------------------------|
A|-1---------------------------1---|-3-------------------------------|
E|---------------------------------|---------------------------------|

 |
 |Guitar 1
 | w                                 w
E|---------------------------------|---------------------------------|
B|---------------------------------|---------------------------------|
G|-3-------------------------------|-5-------------------------------|
D|-3-------------------------------|-5-------------------------------|
A|-1-------------------------------|-3-------------------------------|
E|---------------------------------|---------------------------------|
 |
 |Guitar 2
 | e   e   e   q       e   e   e     e   e   e   e   s s s s e   e
E|---------------------------------|---------------------------------|
B|---------------------------------|---------1-----------------------|
G|---------0---3-------0-----------|---------0-------------0---------|
D|-----0-------------------0-------|-----0-----------2h3-3---2---0---|
A|-1---------------------------1---|-3-----------0-------------------|
E|---------------------------------|---------------------------------|

 |
 |Guitar 1
 | s s s s s s s s s s s s s s s s   s s s s s s s s s s s s s s s s
E|---------------------------------|---------------------------------|
B|---------------------------------|---------------------------------|
G|---------------------------------|---------------------------------|
D|-3-3-3-3-3-3-3-3-3-3-3-3-3-3-3-3-|-3-3-3-3-3-3-3-3-3-3-3-3-3-3-3-3-|
A|-3-3-3-3-3-3-3-3-3-3-3-3-3-3-3-3-|-3-3-3-3-3-3-3-3-3-3-3-3-3-3-3-3-|
E|-1-1-1-1-1-1-1-1-1-1-1-1-1-1-1-1-|-1-1-1-1-1-1-1-1-1-1-1-1-1-1-1-1-|
 |
 |Guitar 2
 | e   e   e   q       e   e   e     e   e   e   q       e   e   e
E|---------------------------------|---------------------------------|
B|---------------------------------|---------------------------------|
G|-------------0-------------------|-------------0-------------------|
D|---------3-----------3-----------|---------5-----------5-----------|
A|-----3-------------------3-------|-5---5-------------------5-\-3---|
E|-1---------------------------1---|-3---3-------------------3-\-1---|

 |
 |Guitar 1
 | s s s s s s s s s s s s s s s s   s s s s s s s s s s s s s s s s
E|---------------------------------|---------------------------------|
B|---------------------------------|---------------------------------|
G|---------------------------------|---------------------------------|
D|-3-3-3-3-3-3-3-3-3-3-3-3-3-3-3-3-|-3-3-3-3-3-3-3-3-3-3-3-3-3-3-3-3-|
A|-3-3-3-3-3-3-3-3-3-3-3-3-3-3-3-3-|-3-3-3-3-3-3-3-3-3-3-3-3-3-3-3-3-|
E|-1-1-1-1-1-1-1-1-1-1-1-1-1-1-1-1-|-1-1-1-1-1-1-1-1-1-1-1-1-1-1-1-1-|
 |
 |Guitar 2
 | e   e   e   q       e   e   e     e   e   e   h+e
E|---------------------------------|---------------------------------|
B|---------------------------------|---------------------------------|
G|-------------0-------------------|-------------0-------------------|
D|---------3-----------3-----------|---------5-----------------------|
A|-----3-------------------3-------|-5---5---------------------------|
E|-1---------------------------1---|-3---3---------------------------|

 |
 |Guitar 1
 | s s s s s s s s s s s s s s s s   s s s s s s s s s s s s s s s s
E|---------------------------------|---------------------------------|
B|---------------------------------|---------------------------------|
G|---------------------------------|---------------------------------|
D|-3-3-3-3-3-3-3-3-3-3-3-3-3-3-3-3-|-3-3-3-3-3-3-3-3-3-3-3-3-3-3-3-3-|
A|-3-3-3-3-3-3-3-3-3-3-3-3-3-3-3-3-|-3-3-3-3-3-3-3-3-3-3-3-3-3-3-3-3-|
E|-1-1-1-1-1-1-1-1-1-1-1-1-1-1-1-1-|-1-1-1-1-1-1-1-1-1-1-1-1-1-1-1-1-|
 |
 |Guitar 2
 | s s s e   s s s s s s s s s s s   s s s E     s s s s e   q
E|---------------------------------|---------------------------------|
B|---------------------------------|-4/6-6-6-----6-6-6-6-8---8---\---|
G|-7/8-8-8---8-8-8-7/8-8-8-7/8-8-8-|-3/5-5-5-----5-5-5-5-7---7---\---|
D|-7/8-8-8---8-8-8-7/8-8-8-7/8-8-8-|-1/3-3-3-----3-3-3-3-5---5---\---|
A|-5/6-6-6---6-6-6-5/6-6-6-5/6-6-6-|---------------------------------|
E|---------------------------------|---------------------------------|

 |
 |Guitar 1
 | s s s s s s s s s s s s s s s s   s s s s s s s s q       q
E|---------------------------------|---------------------------------|
B|---------------------------------|-------------------------r-------|
G|---------------------------------|-------------------------e-------|
D|-3-3-3-3-3-3-3-3-3-3-3-3-3-3-3-3-|-3-3-3-3-3-3-3-3-3---\---s-------|
A|-3-3-3-3-3-3-3-3-3-3-3-3-3-3-3-3-|-3-3-3-3-3-3-3-3-3---\---t-------|
E|-1-1-1-1-1-1-1-1-1-1-1-1-1-1-1-1-|-1-1-1-1-1-1-1-1-1---\-----------|
 |                                                       Guitar 1 out
 |Guitar 2
 | s s s e   s s s s s s s s s s s   s s s E     s s q       q
E|---------------------------------|---------------------------------|
B|---------------------------------|-4/6-6-6-----6-6-6---\---r-------|
G|-7/8-8-8---8-8-8-7/8-8-8-7/8-8-8-|-3/5-5-5-----5-5-5---\---e-------|
D|-7/8-8-8---8-8-8-7/8-8-8-7/8-8-8-|-1/3-3-3-----3-3-3---\---s-------|
A|-5/6-6-6---6-6-6-5/6-6-6-5/6-6-6-|-------------------------t-------|
E|---------------------------------|---------------------------------|
                                                         Guitar 2 out
  development and support by
dmitry ivanov