rock
 
|tablatures   |lyrics   |discussion forums   |more tabs @ XGuitar.com

Rush tabs

Circumstances guitar tab

Artist: Rush
Title: Circumstances

Intro:

------------------------------------------------------------
------------------------------------------------------------
------------------------------------------------------------
--------2-2-2-2-2----------4--2-----------------------------
-3-2----0-0-0-0-0--3-2-----2--0--0-0-0-0-0-0-0-------------
------3-----------------3---------------------------------


-3-3-3--2--3-3-3--2--------------------------------------
-3-3-3--3--3-3-3--3-------------------------------------
-0-0-0--2--0-0-0--2-------------------------------------
-0-0-0--0--0-0-0--0------------------------------------
-2-2-2-----2-2-2-----------------------------------------
-3-3-3-----3-3-3-----------------------------------------


--------------------------------------------------------------------
--------------------------------------------------------------------
--------------------------------------------------------------------
--------2-2-2-2---------4--2-2-2-2---------2------------------------
-3-2----0-0-0-0--3-2----2--0-0-0-0--3-2----0-0-0-0---3-2------------
------3--------------3-------------------3------------------3-------

-3-3-3--2--3-3-3--2--------------------------------------
-3-3-3--3--3-3-3--3-------------------------------------
-0-0-0--2--0-0-0--2-------------------------------------
-0-0-0--0--0-0-0--0------------------------------------
-2-2-2-----2-2-2-----------------------------------------
-3-3-3-----3-3-3-----------------------------------------

Verse
-----------------2-2-----2--2------------2------------------------
-----------------3-3--2--3--3------------2------------------------
-4-4-4-----------2-2--2--2--2------------3------------------------
-4-4-4--5-5-5----0-0--2--0--0---4-4-4----4------------------------
-2-2-2--5-5-5---------0---------4-4-4----4-----------------------
--------3-3-3-------------------2-2-2----2----------------------- repeat

------------------------------------------------------------
-----------2-----------------------------------------------
----4--5---2---7--8--9------------------------------------
-5--4--5---2---7--8--9------------------------------------
-5--2--3---0---5--6--7------------------------------------
-3----------------------------------------------------------

Fun lick:
Part A.       Part B.
---------I-----------------------------------------------------------------
---------I-----------------------------------------------------------------
-5-------I-----------------------------------------------------------------
-5--5----I-----7--------5--4--------5--2-----0---------------------2-------
-3--5----I--------5--7--------5--3--------3-----2---------3--2-----0-------
----3----I--5---------------------------------------3--1---------3---------

Chorus

-------------------3-3-3--2--------------3----------------------
-------------------3-3-3--3--------------3----------------------
-------------------0-0-0--2---5-5-5-5----0----------------------
-2----------4--2---0-0-0--0---5-5-5-5----0----------------------
-0--3-2-----2--0---2-2-2------3-3-3-3----2---------------------
---------3---------3-3-3-----------------3---------------------

---------------------3-3-3--2-----------------------------------
---------------------3-3-3--3-----------------------------------
---------------------0-0-0--2--5-------------------------------
-2-2----------4--2---0-0-0--0--5-----------2-------------------
-0-0--3-2-----2--0---2-2-2-----3--2-0------0-------------------
-----------3---------3-3-3--------------3-----------------------


-------------------3-3-3--2--3-3-3--2--------------------------------
-------------------3-3-3--3--3-3-3--3--------------------------------
-------------------0-0-0--2--0-0-0--2--------------------------------
-2----------4--2---0-0-0--0--0-0-0--0--------------------------------
-0--3-2-----2--0---2-2-2-----2-2-2----------------------------------
---------3---------3-3-3-----3-3-3----------------------------------

Verse
Riff
Chorus

Interlude: itís based on C, D, and E. Listen to the song to figure out the picking. (I am lazy, sorry)

Riff Part B
Chorus

Öand so on and so forth they say.

Tabbed by: Citysburning
  development and support by
dmitry ivanov