rock
 
|tablatures   |lyrics   |discussion forums   |more tabs @ XGuitar.com

Rush tabs

Carve Away the Stone guitar tab

Author/Artist: Rush
Title: Carve Away The Stone
Album: Test For Echo (Atlantic 82925 2)
Transcribed by: Richard J Soto
Email: hrhkinglerxst@home.com

Copyright 1996 Atlantic Recording Corp. & Anthem Entertainment
Music by Lee and Lifeson

January 19, 2002
Previously tabbed by Chris Iacovella ( corripio@yahoo.com )
and previous additional considered & taken comments/advice given by Chuck Bruce.
After close scrutiny & careful review, this was main referenced
from the "Official T4E Tab Book" because I find *most* of this
song correct in that book. The song has many. many layers of
guitars in many many places so this tab is aimed for one guitarist
to replicate it in a live setting.
Solo not tabbed yet & I would feel the book's solo to not be
near 100% correct at all because most books arent IMO.

This is ALL of the song's part & structure tabbed except the solo.

-3-------0------|---------------|3-------0------|2--------------|-------------
-3-------0------|---------------|3-------0------|3--------------|-------------
-0-------2------|1--------------|0-------2------|2--------------|-------------
-0-------2------|2--------------|0-------2------|0--------------|-------------
-2-------0------|2--------------|2-------0------|0--------------|-------------
-3-------x------|0--------------|3-------x------|x--------------|-------------
 1 & 2 & 3 & 4 &

-3-------0------|---------------|3-------0------|2--------------|-------------
-3-------0------|0--------------|3-------0------|3--------------|-------------
-0-------2------|1--------------|0-------2------|2--------------|-------------
-0-------2------|2--------------|0-------2------|0--------------|-------------
-2-------0------|2--------------|2-------0------|0--------------|-------------
-3-------x------|0--------------|3-------x------|x--------------|-------------


-3-------0------|0--------------|-------|3-------0------|2--------------|-----
-3-------0------|0--------------|-------|3-------0------|3--------------|-----
-0-------2------|1--------------|-------|0-------2------|2--------------|-----
-0-------2------|2--------------|-------|0-------2------|0-----------0-0|-----
-2-------0------|2--------------|-------|2-------0------|0-----------5-3|-----
-3-------x------|0--------------|-------|3-------x------|x--------------|-----


--------------------|--------------------|-------------------|----------------
--------------------|--------------------|-------------------|----------------
--------------------|--------------------|-------------------|----------------
-0---0-0---0-0---0-0|0---0-0---0------0-0|0---0-0---0-0---0-0|----------------
-5---5/7---5\3---5-3|5---5/7---7/10--\5-3|5---5/7---5\3---5-3|----------------
--------------------|--------------------|-------------------|----------------


-----------------||-----------------------------------------------------------
-----------------||-----------------------------------------------------------
-----------------||-----------------------------------------------------------
-0---0-0---0-----||-----------------------------------------------------------
-5---5/7---7/10--||-----------------------------------------------------------
-----------------||-----------------------------------------------------------


----------------|---------------|---------------|---------------|-------------
-----1----------|1--------------|1--------------|----1----------|-------------
---0-----0-----0|--------------0|----0-------5--|--0-----0-----0|-------------
-3-----0---0-2--|--2---------3--|--0---0-2/5----|3-----0---0-2--|-------------
----------------|--0---0--------|---------------|---------------|-------------
----------------|--------3------|---------------|---------------|-------------
 p   i       m   i m     r   p   i       m   r

------------|-------------------|---------------|---------------|-------------
-1----------|----1--------------|----1----------|1--------------|-------------
------------|--0----------------|--0-----0-----0|--------------0|-------------
---2--------|3-----0---0-5-3-5--|3-----0---0-2--|--2---------3--|-------------
---0---0----|------------5-3-5--|---------------|--0---0--------|-------------
---------3--|------------3-3-3--|---------------|--------3------|-------------


----------------|---------------|-----------|---------------|-----------------
-1--------------|----1----------|0----------|----1----------|-----------------
-----0-------5--|--0-----0-----0|-----------|--0---------0-0|-----------------
---0---0-2/5----|3-----0---0-2--|--2--------|3-----0---0-5-3|-----------------
----------------|---------------|--0---0----|------------5-3|-----------------
----------------|---------------|--------3--|------------3-3|-----------------


--------------------|--------------------|-------------------|----------------
--------------------|--------------------|-------------------|----------------
-0---0-0-----0---0-0|0---0-0---0--0---0-0|0---0-0-----0---0-0|----------------
-5---5-7-----3---5-3|5---5-7---7/10---5-3|5---5-7-----3---5-3|----------------
-5---5-7-----3---5-3|5---5-7---7/10---5-3|5---5-7-----3---5-3|----------------
-3---3-5-----1---3-3|3---3-5---5//8---3-3|3---3-5-----1---3-3|----------------


---------------------||-------------------------------------------------------
---------------------||-------------------------------------------------------
-0---0-0---0--0------||-------------------------------------------------------
-5---5-7---7/10------||-------------------------------------------------------
-5---5-7---7/10------||-------------------------------------------------------
-3---3-5---5//8------||-------------------------------------------------------


-3-----3-----5-5-1--3-|1-----3-----5-----10--10-|-----------------------------
-3-----3-----5-5-1--3-|1-----3-----5-----10--10-|-----------------------------
-4-----4-----6-6-2--4-|2-----4-----6-----11--11-|-----------------------------
-5-----5-----7-7-3--5-|3-----5-----7-----12--12-|-----------------------------
-5-----5-----7-7-3--5-|3-----5-----7-----12--12-|-----------------------------
-3-----3-----5-5-1--3-|1-----3-----5-----10--10-|-----------------------------


-3-----3-----5-5-1--3-|1-----3-----5-----10--10-|-----------------------------
-3-----3-----5-5-1--3-|1-----3-----5-----10--10-|-----------------------------
-4-----4-----6-6-2--4-|2-----4-----6-----11--11-|-----------------------------
-5-----5-----7-7-3--5-|3-----5-----7-----12--12-|-----------------------------
-5-----5-----7-7-3--5-|3-----5-----7-----12--12-|-----------------------------
-3-----3-----5-5-1--3-|1-----3-----5-----10--10-|-----------------------------


------------------------------------------------------------------------------
------------------------------------------------------------------------------
------------------------------------------------------------------------------
------------------------------------------------------------------------------
------------------------------------------------------------------------------
------------------------------------------------------------------------------
 Solo to be tabbed sometime in the near future

-5---7---0---3---5---0--|5---7---0---3---5---0--|-----------------------------
-5---7---0---3---5---0--|5---7---0---3---5---0--|-----------------------------
-6---8---6---4---6---1--|6---8---6---4---6---1--|-----------------------------
-7---9---7---5---7---2--|7---9---7---5---7---2--|-----------------------------
-7---9---7---5---7---2--|7---9---7---5---7---2--|-----------------------------
-5---7---5---3---5---0--|5---7---5---3---5---0--|-----------------------------
 strummed
  development and support by
dmitry ivanov