rock
 
|tablatures   |lyrics   |discussion forums   |more tabs @ XGuitar.com

Rush tabs

Between Sun & Moon guitar tab

Rush: Between Sun and Moon
From the album Counterparts (Atlantic Records)
Copyright 1993 Core Music Publishing
Music by Lee and Lifeson
Lyrics by Peart and Dubois



Transcribed by: Richard J. Soto
Email: lerxst@zeus.jersey.net

This tab updated on October 2nd, 1998.

In the intro section & verses, Alex is gently finger picking his electric's
strings using his middle & ring fingers but, he picks the bass notes on the
A string, which he lets ring out, with his fulcrum (guitar pick) for the
most part except where noted. He also sounds like he uses the guitar pick
for notes played on the D string as well most of the time, while fingering
the G string. Practice the technique to get the feel, timing & sound right.

He then switches to only using his guitar pick until the next verse and so
on and so forth.

Note the subtle 7th & 9th chords used in the choruses.

----------------------------|-------------------------------|-----------------
----------------------------|-------------------------------|-----------------
-2-p0--2--2---2-2--2---2-2--|5--3-5/7-5-5---5--3-5/7-5-5-3-3|-----------------
-2-p0--2--2---2-2--2---2-2--|5--3-5/7-5-5---5--3-5/7-5-5-3-3|-----------------
-0----------0--------------0|-------------0-----------------|-----------------
----------------------------|-------------------------------|-----------------
       .  .        .     .

----------------------------|-----------------------------|-------------------
----------------------------|-----------------------------|-------------------
-2--2--2-2---2vvvp0-2--2-2--|5--3-5/7-7-7vv7vv5-7--7-5-5-5|-------------------
-2--2--2-2---2vvvp0-2--2-2--|5--3-5/7-7-7vv7vv5-7--7-5-5-5|-------------------
-0---------0---------------0|-----------------------------|-------------------
----------------------------|-----------------------------|-------------------
 .  .    .          .    .                      .

--------------------------------------------------|---------------------------
--------------------------------------------------|---------------------------
-2--2--2-2---2-2--2---2------2--2-2--2---2--2-2--2|---------------------------
-2--2--2-2---2-2--2---2------2--2-2--2---2--2-2--2|---------------------------
-0---------0------------0-h3----------------------|---------------------------
--------------------------------------------------|---------------------------
    .    .     .

------------------------------------------|-----------------------------------
------------------------------------------|-----------------------------------
----2--2-2--------2-----2-2-------2-------|---2---2-2-2-----2---2-2----2-2--2-
----2--2-2--0---2---0-2-----------2----2--|0--2---2-2-2-----2---2-2----2-2--2-
-p0-------------------------3---3----3---3|3------------3-----3-----3---------
------------------------------------------|-----------------------------------
        all finger played                                         .

----------------------------------|------------|------------------------------
----------------------------------|------------|------------------------------
-2-2-2----2----2-------2-----2----|-2--2----2--|------------------------------
-2-2-2----2----2---0-2---0-2---2--|-2--2----2--|------------------------------
-0-0-0----0----0------------------|-0--0----0--|------------------------------
-------3-----3b-------------------|-------3b---|------------------------------
 fulcrum(gtr pick)now used till verse

----------------------------------|-------------------|-----------------------
----------------------------------|-------------------|-----------------------
-------2-----2---------2-----2----|-2---2-2-2-2-2-2-2-|-----------------------
-0---2---0-2---2-----2-----2---2--|-2---2-2-2-2-2-2-2-|-----------------------
-----------------3-------3--------|-3---3-3-3-3-3-3-3-|-----------------------
----------------------------------|-------------------|-----------------------
 Play 2x

-7----7---7-7-7---7----7---7-7-7---5----5---5-5-5---3------3------3------3----
-7----7---7-7-7---9----9---9-9-9---5----5---5-5-5---3------3------3------3----
-8----8---8-8-8---8----8---8-8-8---6----6---6-6-6---4------4------4------4----
-9----9---9-9-9---9----9---9-9-9---7----7---7-7-7---5------5------5------5----
-9----9---9-9-9---7----7---7-7-7---7----7---7-7-7---5------5------5------5----
-7----7---7-7-7---7----7---7-7-7---5----5---5-5-5---3------3------3------3----


---3------3------3-----------------------------------|------------------------
---3------3------3-----------------------------------|------------------------
---4------4------4---4-4-4-4-4-4-4-4-4---2-2-2-2-4-4-|------------------------
---5------5------5---4-4-4-4-4-4-4-4-4---2-2-2-2-4-4-|------------------------
---5------5------5---2-2-2-2-2-2-2-2-2---0-0-0-0-2-2-|------------------------
---3------3------3-----------------------------------|------------------------
                                     .

-10----10---10-10-10---10----10---10-10-10----8-----8----8--8--8---6------6---
-10----10---10-10-10---12----12---12-12-12----8-----8----8--8--8---6------6---
-11----11---11-11-11---11----11---11-11-11----9-----9----9--9--9---7------7---
-12----12---12-12-12---12----12---12-12-12---10----10---10-10-10---8------8---
-12----12---12-12-12---10----10---10-10-10---10----10---10-10-10---8------8---
-10----10---10-10-10---10----10---10-10-10----8-----8----8--8--8---6------6---


-----6------6------6------6------6--|-----------------------------------------
-----6------6------6------6------6--|-10----10---12-12-12-12--12---10----10---
-----7------7------7------7------7--|-11----11---11-11-11-11--11---11----11---
-----8------8------8------8------8--|-12----12---12-12-12-12--12---12----12---
-----8------8------8------8------8--|-12----12---10-10-10-10--10---12----12---
-----6------6------6------6------6--|-----------------------------------------


--------------------|---------------------------------------------------------
-12-12-12-12--12----|---------------------------------------------------------
-11-11-11-11--11----|---------------------------------------------------------
-12-12-12-12--12----|---------------------------------------------------------
-10-10-10-10--10----|---------------------------------------------------------
--------------------|---------------------------------------------------------
  development and support by
dmitry ivanov