rock
 
|tablatures   |lyrics   |discussion forums   |more tabs @ XGuitar.com

Rush tabs

2112 Overture/The Temples of Syrinx guitar tab

2112 COMPLETE
I Overture (0:00 - 4:33)

47 seconds of free time
   E  Am   C9 G  D
e|---------3--3--2~---3.---------|--------------------3-----2--3-----2-|
B|----1.---3--3--3~---3.---1-1-1.|----1.--3-3.----1---3--3--3--3--3--3-|
G|-1--2.---x--0--2~---0.---2-2-2.|-1--2.--x-0.-1--2.--x--0--2--x--0--2-|
D|-2--2.---2--0--0~---2.---2-2-2.|-2--2.--2-0.-2--2.--2--0--0--2--0--0-|
A|-2--0.---3--2-------3.---0-0-0.|-2--0.--3-2.-2--0.--3--2-----3--2----|
E|-0----------3------------------|-0--------3.-0---------3--------3----|

e|----------3---------------3--3--2~-|
B|-----1.---3--3.------1.---3--3--3~-|
G|--1--2.---x--0.---1--2.---x--0--2~-|
D|--2--2.---2--0.---2--2.---2--0--0~-|
A|--2--0.---3--2.---2--0.---3--2-----|
E|--0----------3.---0----------3-----|
       |       |       |
      here,  here,   here,
   (with delayed repeats ~400 ms)

e|---------3--------------3--2.---3-----2--3-----2-----|
B|----1.---3--3.------1.--3--3.---3--3--3--3--3--3-----|
G|-1--2.---x--0.---1--2.--0--2.---x--0--2--x--0--2-----|
D|-2--2.---2--0.---2--2.--0--0.---2--0--0--2--0--0---0-|
A|-2--0.---3--2.---2--0.--2-------3--2-----3--2--------|
E|-0----------3----0------3----------3--------3--------|
      |       |       |
    here,    here, and here.

These chords are played by an acoustic and another electric:

   G   D   C   G   D Dsus4 D   C  F  C  D   A  D  A
e|-15--14--12--15------------|-----------------------|
B|-----------------15~-------|-13----13-15-----------|
G|--------------------14-----|----12-------14~-------|
D|-----------------------12~-|----------------14-----|
A|---------------------------|-------------------12~-|
E|---------------------------|-----------------------|

    A5    B5                 A5 G5            D5   D/C# A5
e|-----|-------------------------------------------------------------|
B|-----|-------------------------------------------------------------|
G|-----|------------------------------------------2------------------| repeat
D|-----|-4--4-4-4-4-4-4-4-4-4---5-5-5-5-5-5-5-5-5-0----2--2-2-2-2-2--| 3 times
A|--7\-|-2--2-2-2-2-2-2-2-2-2-0-5-5-5-5-5-5-5-5-5---4--0--0-0-0-0-0--|
E|--5\-|------------------------3-3-3-3-3-3-3-3-3--------------------|

   E5    D5 D/C# B5                D5
e|----------------|--------------------------------------------|
B|----------------|--------------------------------------------|
G|-4--4-4-2-------|--------------7\----------------------------|
D|-2--2-2-0----4--|-4-4-4-4-4-4--7\----------------------------|
A|----------4--2--|-2-2-2-2-2-2--5\----------------------------|
E|----------------|--------------------------------------------|





    A5    B5                 A5 G5            D5   D/C# A5
e|-----|-------------------------------------------------------------|
B|-----|-------------------------------------------------------------|
G|-----|------------------------------------------2------------------|
D|-----|-4--4-4-4-4-4-4-4-4-4---5-5-5-5-5-5-5-5-5-0----2--2-2-2-2-2--|
A|--7\-|-2--2-2-2-2-2-2-2-2-2-0-5-5-5-5-5-5-5-5-5---4--0--0-0-0-0-0--|
E|--5\-|------------------------3-3-3-3-3-3-3-3-3--------------------|

                       A  Bm/A   D   Amaj7
e|--------------------------------------------------------|
B|---------------------2--3--3---7~--5--5\--2--3--3--7--7-|
G|---------------------2--4--4---7~--6--6\--2--4--4--7--7-| repeat
D|---------------------2--4--4---7~--6--6\--2--4--4--7--7-| 4 times
A|------------0--------0--0--0-------0--0---0--0--0-------|
E|---0--2--3----3--0--------------------------------------|
                      (with phaser)

Doubled by acoustic and another electric
                     B               Bm   G    A5   D D/C# A Bm
e|---------------------------------|-2~---3~-------------------|
B|-------------------7--7-7--7-7~--|-3~---3~--------3--3-----3-|
G|-------------------8--8-8--8-8~--|-4~---4~--------2--2--2--4-|
D|-------------------9--9-9--9-9~--|-4~---5~---7~---0--x--2--4-|
A|----------0--------9--9-9--9-9~--|-2~---5~---7~------4--0--2-|
E|-0--2--3----3--0---7--7-7--7-7~--|------3~---5~--------------|

   Bm   G    A5   D D/C# A Bm
e|-2~---3~-------------------|
B|-3~---3~--------3--3-----3-|
G|-4~---4~--------2--2--2--4-|
D|-4~---5~---7~---0--x--2--4-|
A|-2~---5~---7~------4--0--2-|
E|------3~---5~--------------|
                 Bm
e|--------------(2)---|--------------------------|--2----------------|
B|--------------(3)---|--------------------------|--3----------------|
G|o-------------(4)--o|----------------7------9\-|--4----------------|
D|o-------------(4)--o|----------------7--7---9\-|--4----------------|
A|--------0-----(2)---|--------0-------5--7---7\-|--2----------------|
E|--0-2-3---3-0--2----|--0-2-3---3-2~--5--5---7\-|-------------------|
                 Bm
e|--------------(2)---|--------------------------|
B|--------------(3)---|--------------------------|
G|o-------------(4)--o|----------------7------9\-|
D|o-------------(4)--o|----------------7--7---9\-|
A|--------0-----(2)---|--------0-------5--7---7\-|
E|--0-2-3---3-0--2----|--0-2-3---3-2~--5--5---7\-|

   A5                G                 F5
e|------------------------------------------------------------------|
B|----------------------------------------------------------3--3--3-|
G|-2-2-2-2-2-2-2-----------------------2~--2-2-2-2-2-2-2-2--x--0--x-|
D|-2-2-2-2-2-2-2-----------------------3~--3-3-3-3-3-3-3-3--2--0--2-|
A|-0-0-0-0-0-0-0-----0-0-0-0-0-0-0-----3~--3-3-3-3-3-3-3-3--3--2--3-|
E|----------------0--3-3-3-3-3-3-3--0--1~--1-1-1-1-1-1-1-1-----3----|






   Am7          C/G          F                C5  G5 C5
e|--------0------------0---|----------1-----------------------|
B|----------1------------1-|------------1---------------------| repeat
G|-----0------0------0-----|------2-----------5------5--------| 31/2 times
D|-2-2-------------2-------|----3-------------5---5--5--------| under solo
A|-0-----------------------|-3----------------3---5--3--------|
E|--------------3----------|-1--------------------3-----------|

[Guitar Solo]  (trill; 0tr2 = 0h2p0h2p0h2p0 etc)
                   \/
e|-----------------------------------------------------------------5-7---|
B|-8---------0------------------------------------5-7-8b10~--8b10--------|
G|-7b9r7b9~----0~-0tr2~--------------------5-6--7------------------------|
D|-----------------------3~----------5-6-7-------------------------------|
A|----------------------------5--6-7-------------------------------------|
E|-----------------------------------------------------------------------|

e|-8b10~~(10)~~(10)~~r8~---5h8p5------------------------------------------|
B|-------------------------------8-8b10~---10b12~~(12)~--10b12~~--10b13~~-|
G|------------------------------------------------------------------------|
D|------------------------------------------------------------------------|
A|------------------------------------------------------------------------|
E|------------------------------------------------------------------------|

e|--------------------------------------------------------------|
B|-10b12~~(12)~~--10b13--10b13r10--8h10p8-----------------------|
G|----------------------------------------9--5h7p5---7b9-5~~~---|
D|-------------------------------------------------7------------|
A|--------------------------------------------------------------|
E|--------------------------------------------------------------|

e|-------------------------------------------------------------------|
B|-------------------------------------------------------------------|
G|-------[5]-----[7]-[5]---------------------------------------------|
D|-5--7------[7]---------[7]~~----7p5---7--5s3~~~~-------------------|
A|------------------------------------7------------------------------|
E|-------------------------------------------------------------------|

Doubled by acoustic guitar (and two other electrics)
   Bm              D5  Bm              G5
e|-------------------------------------------------------|
B|-3-3-3-3-3-3-3-------3-3-3-3-3-3-3---------------------|
G|-4-4-4-4-4-4-4---7---4-4-4-4-4-4-4---------------------| repeat
D|-4-4-4-4-4-4-4---7---4-4-4-4-4-4-4---5-----------------| 2 times
A|-2-2-2-2-2-2-2---5---2-2-2-2-2-2-2---5-----------------| along with
E|-------------------------------------3-----------------|

Doubled by acoustic guitar (and two other electrics)
    Bm                D         Bm                G
e|-------7-7-7-7-7----5--------------7-7-7-7-7----3------------------|
B|-------7-7-7-7-7-x--7---x-x--------7-7-7-7-7-x--3---x-x------------|
G|-------7-7-7-7-7-x--7---x-x--------7-7-7-7-7-x--4---x-x------------|
D|--/9-------------x--7---x-x---/9-------------x--5---x-x------------|
A|--/9-------------x--5---x-x---/9-------------x--5---x-x------------|
E|--/7--------------------------/7----------------3------------------|






Doubled by an acoustic guitar
    Esus2          Dsus2          Csus2
e|--7--7-7-7-7-7---5--5-5-5-5-5---3-3-3-3-3-3-3---------------------|
B|--7--7-7-7-7-7---5--5-5-5-5-5---3-3-3-3-3-3-3---------------------|
G|--9--9-9-9-9-9---7--7-7-7-7-7---5-5-5-5-5-5-5---------------------|
D|--9--9-9-9-9-9---7--7-7-7-7-7---5-5-5-5-5-5-5---------------------|
A|--7--7-7-7-7-7---5--5-5-5-5-5---3-3-3-3-3-3-3---------------------|
E|------------------------------------------------------------------|

Doubled by acoustic guitar (and two other electrics)
   Bm              D5  Bm              G5
e|-------------------------------------------------------|
B|-3-3-3-3-3-3-3-------3-3-3-3-3-3-3---------------------|
G|-4-4-4-4-4-4-4---7---4-4-4-4-4-4-4---------------------|
D|-4-4-4-4-4-4-4---7---4-4-4-4-4-4-4---5-----------------|
A|-2-2-2-2-2-2-2---5---2-2-2-2-2-2-2---5-----------------|
E|-------------------------------------3-----------------|

Doubled by an acoustic guitar
    Esus2          Dsus2          Csus2
e|--7--7-7-7-7-7---5--5-5-5-5-5---3-3-3-3-3-3-3---------------------|
B|--7--7-7-7-7-7---5--5-5-5-5-5---3-3-3-3-3-3-3---------------------|
G|--9--9-9-9-9-9---7--7-7-7-7-7---5-5-5-5-5-5-5---------------------|
D|--9--9-9-9-9-9---7--7-7-7-7-7---5-5-5-5-5-5-5---------------------|
A|--7--7-7-7-7-7---5--5-5-5-5-5---3-3-3-3-3-3-3---------------------|
E|------------------------------------------------------------------|

Doubled by acoustic guitar (and two other electrics)
   Bm              D5  Bm              G5
e|-------------------------------------------------------|
B|-3-3-3-3-3-3-3-------3-3-3-3-3-3-3---------------------|
G|-4-4-4-4-4-4-4---7---4-4-4-4-4-4-4---------------------| repeat
D|-4-4-4-4-4-4-4---7---4-4-4-4-4-4-4---5-----------------| 2 times
A|-2-2-2-2-2-2-2---5---2-2-2-2-2-2-2---5-----------------|
E|-------------------------------------3-----------------|

Doubled by acoustic guitar (and two other electrics)
   Bm              D5  Bm              G5
e|-------------------------------------------------------|
B|-3-3-3-3-3-3-3-------3-3-3-3-3-3-3---------------------|
G|-4-4-4-4-4-4-4---7---4-4-4-4-4-4-4---------------------| repeat
D|-4-4-4-4-4-4-4---7---4-4-4-4-4-4-4---5-----------------| 2 times
A|-2-2-2-2-2-2-2---5---2-2-2-2-2-2-2---5-----------------| under
E|-------------------------------------3-----------------|   |
                                                             |
e|------------------------|------------------------|----------------------|
B|--------4-------4-------|-------4-------4--------|-------4-------4------|
G|o---4-6---6-4-6---4-4~-o|---4-6---6-4-6---4-4~---|---4-6---6-4-6---4-[4]|
D|o-4--------------------o|-4----------------------|-4--------------------|
A|------------------------|------------------------|----------------------|
E|------------------------|------------------------|----------------------|

|-------2---------2----------------------|
|-3--3--3---3--3--3---3------------------|
|-x--0--2---x--0--2---0---1--1--1--1--1~-|
|-2--0--0---2--0--0---0---2--2--2--2--2~-|
|-3--2------3--2------2---2--2--2--2--2~-|
|----3---------3------3---0--0--0--0--0~-|



With phaser:
  C                 Dadd4   C   G/B  Am
|-----------3~-----------------------0~-----|
|-------------1~--1-----3------------1~-----|
|---------0---------------0---0---0--2~-----|
|-------2-------2-----4--------------2~-----|
|-0-2-3-------------5-------3---2----0~-----|
|-------------------------------------------|
  And the meek shall inherit the earth.

II Temples of Syrinx (4:34 - 6:43)
   E  Am                C5 G5           D5
e|------------------------------------------|---------------------------| repeat
B|----1-1-1-----1-1-1-----------------------|----1-1-1-----1-1-1--------| x4
G|-1--2-2-2--1--2-2-2---5---------5-----7\--|-1--2-2-2--1--2-2-2---5----| 3rd+4th
D|-2--2-2-2--2--2-2-2---5--5-5-5--5--5--7\--|-2--2-2-2--2--2-2-2---5--5~| times
A|-2--0-0-0--2--0-0-0---3--5-5-5--3--5--5\--|-2--0-0-0--2--0-0-0---3--5~| with
E|-0---------0-------------3-3-3-----3------|-0---------0-------------3~| lyrics
We've taken care of everything, the words you read and the songs you
sing, the pictures that give pleasure to your eye.
It's one for all and all for one. We work together, common sons.
Never need to wonder how or why.

                     Bm      G       A       B
e|----------------------2-2-----3-3-----5-5-----|
B|----------------------3-3-----3-3-----5-5-----| repeat
G|-------------------4--4-4-----4-4-----6-6-----| 4 times
D|-------------------4-------5-------7----------| w/lyrics
A|----------0--------2-------5-------7----------|
E|-0--2--3-----3--0-(2)------3-------5-------7\-|
We are the priests of the temples of Syrinx.
Our great computers fill the hallowed halls.
We are the priests of the temples of Syrinx.
All the gifts of life are held within our walls.

                     D5
e|----------------------|
B|-------------------3--|
G|-------------------2--|
D|-------------------0--|
A|-----------0----------|
E|--0--2--3-----3-------|

    B                 D   B                 G5
e|----------------------------------------------|-----------------|
B|----------------------------------------------|-----------------|
G|--4-4-4-4--4--4-4---7---4-4-4-4--4--4-4---4--o|-4-4-4-4-4-4-4-4-| repeat
D|--4-4-4-4--4--4-4---7---4-4-4-4--4--4-4---5--o|-5-5-5-5-5-5-5-5-|
A|--2-2-2-2--2--2-2---5---2-2-2-2--2--2-2---5---|-5-5-5-5-5-5-5-5-|
E|------------------------------------------3---|-3-3-3-3-3-3-3-3-|

   E  Am                C5 G5           D5
e|------------------------------------------|---------------------------|
B|----1-1-1-----1-1-1-----------------------|----1-1-1-----1-1-1--------|
G|-1--2-2-2--1--2-2-2---5---------5-----7\--|-1--2-2-2--1--2-2-2---5----| repeat
D|-2--2-2-2--2--2-2-2---5--5-5-5--5--5--7\--|-2--2-2-2--2--2-2-2---5--5~| twice
A|-2--0-0-0--2--0-0-0---3--5-5-5--3--5--5\--|-2--0-0-0--2--0-0-0---3--5~| with
E|-0---------0-------------3-3-3-----3------|-0---------0-------------3~| lyrics
Look around this world we've made, equality our stock in trade, come and join the
 brotherhood of man. Oh what a nice, contented world, let the banners be unfurled.
 Hold the red star proudly high in hand.

                     Bm      G       A       B
e|----------------------2-2-----3-3-----5-5-----|
B|----------------------3-3-----3-3-----5-5-----| repeat
G|-------------------4--4-4-----4-4-----6-6-----| 4 times
D|-------------------4-------5-------7----------| w/lyrics
A|----------0--------2-------5-------7----------|
E|-0--2--3-----3--0-(2)------3-------5-------7\-|
We are the priests of the temples of Syrinx.
Our great computers fill the hallowed halls.
We are the priests of the temples of Syrinx.
All the gifts of life are held within our walls.

                     D5
e|----------------------|
B|-------------------3--|
G|-------------------2--|
D|-------------------0--|
A|-----------0----------|
E|--0--2--3-----3-------|

e|-------------------------------------------|
B|-------------------------------------------|
G|-4-4-4-4--4--4-4---7---4-4-4-4--4--4-4---4-|
D|-4-4-4-4--4--4-4---7---4-4-4-4--4--4-4---5-|
A|-2-2-2-2--2--2-2---5---2-2-2-2--2--2-2---5-|
E|-----------------------------------------3-|

e|-----------------------------------------3~~--------|
B|-----------------------------------------3~~--------|
G|-4-4-4-4--4--4-4---7---4-4-4-4--4--4-4---4~~--------|
D|-4-4-4-4--4--4-4---7---4-4-4-4--4--4-4---5~~--------|
A|-2-2-2-2--2--2-2---5---2-2-2-2--2--2-2---5~~--------|
E|-----------------------------------------3~~--------|

On nylon-strung acoustic:
    G          F#        Bm
e|--3----------2-------------------------------|
B|----3----3------2---2--3~--------------------|
G|------4-----------3----4~--------------------|
D|-----------------------4~--------------------|
A|-----------------------2~--------------------|
E|--3----------2-------------------------------|

III Discovery (6:44 - 10:15)
Free time:
e|-------------0~----------------------------------------------------|
B|-----------0~------------------------------------------------------|
G|---------0~-------------0~-----------------------------------------|
D|-------0~--------------------------------0~---------------0~-------|
A|-----0~------------0~---------------0~---------------0~------------|
E|-0~----------------------------------------------------------------|

e|-------------------------------------------------------------------|
B|-------------------------------------------------------------------|
G|--------2~-------2~~-----------------------------------------------|
D|-----0-----------------------0------<7>~~~~~------------0.-----0.--|
A|--0----------0------------0-----<7>-------------------0~------0~---|
E|----------------------------------------------------0~-------0~----|
e|-------------------------------------------------------------------|
B|---------------------------------------------------------3~--------|
G|-----------------------------------------2~------------2-----------|
D|--------------------------0~--------0----------------0-------------|
A|----<7>~-----0~-------0--------------------------------------------|
E|<5>-------0--------------------------------------------------------|

e|---------0~-------3-5--2-------------------------------------------|
B|-----3-------------------3----3-----3~--------3--5~----------------|
G|-0h2---2-------------------2----2---2~--------4--5~----------------|
D|------------------------------------0~--------0--0~----------------|
A|-------------------------------------------------------------------|
E|-------------------------------------------------------------------|

e|--------------------------------------------------|----------------|
B|-7~------3---3~~---------<7>~---------------------|----------------|
G|-7~------0---2~~-------------<7>~---------<12>~---|----------------|
D|-0~------0---0~~------------------<12>~-----------|----------------|
A|--------------------------------------<12>~-------|----------------|
E|--------------------------------------------------|----------------|

e|----------------|----------------|---7~-----------|----7~----------|
B|--3--5--3-------|----------------|--8~------------|---8~-----------|
G|--2--5--2-------|-----<5>~~------|----------------|--7~------------|
D|--0--0--0-------|----------------|----------------|---------0~-----|
A|----------------|----------------|----------------|----------------|
E|----------------|----------------|----------------|----------------|

Freely               C(addD)
   G/D         D            G6/B   \/    A7
e|-7----7---7\-2----2---2-|----0---0--0--0------0~-------------|
B|-8-----8--8\-3------3-3-|-3--3---5\-3--2--------2--2--2------| repeat
G|-7--7-----7\-2--2-----2-|-0--0---0--0--0---0-------0--0------| 4 times
D|-0--------0--0--------0-|-0------0--0--2-----------2--2------| 3rd+4thtime
A|------------------------|-2------3\-2--0-----------0--0------| w/lyrics
E|------------------------|------------------------------------|
What can this strange device be? When I touch it, it gives forth a sound.
It has wires that vibrate and give music, what can this thing be that
I've found?

Gradual increase in volume and speed
  G/D C/D  A/D     D   C/D
e|-7--8-8--9---9---10--12\------------------------------------|
B|-8--8-8--10--10--10--13\------------------------------------| repeat
G|-7--9-9--9---9---11--12\------------------------------------| 4 times
D|-0--0-0--0---0---0---0--------------------------------------|
A|------------------------------------------------------------|
E|------------------------------------------------------------|

    D  C Csus2 Dsus2| G
e|--2--0-----2--0.--5-7--5-|
B|--3--1--3--3--3.--8-8--8-|
G|--2--0--5--2--2.--7-7--7-|
D|--------5----------------|
A|-------------------------|
E|-------------------------|
  See how it sings like a sad heart, and




e|-2--7--0--2-----7--5--------------|
B|-3--8--3--3--3.-8--8--------------|
G|-2--7--2--2--5.-7--7--------------|
D|-------------5.-------------------|
A|----------------------------------|
E|----------------------------------|
  joyously screams out its pain.

e|--2--7--0--2------0-0---------|
B|--3--8--3--3--3.--3-3---------|
G|--2--7--2--2--5.--2-2---------|
D|--------------5.--------------|
A|------------------------------|
E|------------------------------|
Sounds that build high like a mountain -

    D      C9    G             C9     G     A7
e|--2---------------------------------------------------------------|
B|--3------5s3---3~------------5~s3---3~----2~----------------------|
G|--2------0-----0~---0--0--0--0~-----0~----0~----------------------|
D|--0------0-----0~---0--0--0--0~-----0~----2~----------------------|
A|---------3s2---2~---2--2--2--3~s2---2~----0~----------------------|
E|------------------------------------------------------------------|
Or notes  that  fall          ge-    ent-  ly   like

e|-------------------------------------------------------------------|
B|-------------------------------------------------------------------|
G|--0--0--0--0--0--0--0--0--0--0--0--0--0--0--0--0--0--0--0--0-------|
D|--12-12-12-12s9--9--9--9s-11-11-11-11s7--7--7--7s-9--9--9--9s------|
A|--0--0--0--0--0--0--0--0--0--0--0--0--0--0--0--0--0--0--0--0-------|
E|-------------------------------------------------------------------|
    rain...

e|-------------------------------------------------------------------|
B|-------------------------------------------------------------------|
G|--0--0--0--0--0--0--0--0--0--0--0--0--0--0--0--0--0--0--0--0-------|
D|--5--5--5--5s-7--7--7--7s-4--4--4--4s-5--5--5--5s-2--2--2--2s------|
A|--0--0--0--0--0--0--0--0--0--0--0--0--0--0--0--0--0--0--0--0-------|
E|-------------------------------------------------------------------|

e|-------------------------------------------------------------------|
B|-------------------------------------------------------------------|
G|--0--0--0--0--0--0--0--0--0--0--0--0--0--0--0--0-------------------|
D|--7--7--7--7s-4--4--4--4s-5--5--5--5--0--0--0--0-------------------|
A|--0--0--0--0--0--0--0--0--0--0--0--0--0--0--0--0-------------------|
E|-------------------------------------------------------------------|

Freely
    A                         D           E
e|--------------------------------------------------------------------|
B|-----2----2h3--2----3p3-----7--7h8--7---9~---9--9h10--9-------------| repeat
G|----------2---------2-------7--7----7---9~---9--9-----9-------------| 6 times
D|-------2--2h4----2--4p2-----7--7h9--7---9~---9--9h11--9-------------| 3rd-6th
A|--0~----------------0----0--------------0-----------------0---------| times
E|--------------------------------------------------------------------| w/lyrics
I can't wait to share this new wonder
The people will all see its light.
Let them all make their own music.
The priests praise my name on this night.


IV Presentation (10:16 - 13:55)
    A                       D
e|------------5--5~---5-5-----------------------------------|
B|------------5--5~---5-5---7-7~-8--7--7--7.-8-----7~--7----|
G|------6-6~--6--6~---6-6---7-7~-7--7--7--7.-7-----7~--7----|
D|--7~--7-7~--7--7~---7-7---7-7~-7--7--7--7.-7--7--7~--7----| repeat
A|--7~--7-7~--7--7~---7-7---5-5~-5--5--5--5.-5--5--5~--5----| 2 times
E|--5~--5-5~--5--5~---5-5-----------------------5-----------|

Doubled an acoustic guitar (electric is flanged)
   A  Bm/A D  Amaj7      Bm/A  E Bm  A
e|-----------------|-----------------------------------------|
B|-2--3-3--7--5-5\-|--2--3-3---9--3--2-----------------------|
G|-2--4-4--7--6-6\-|--2--4-4---9--4--2-----------------------|
D|-2--4-4--7--6-6\-|--2--4-4---9--4--2-----------------------|
A|-0--0-0-----0-0--|--0--0-0---------0-----------------------|
E|-----------------|-----------------------------------------|
I know it's most unusual, to come before you so;

Doubled by acoustic guitar (electric is flanged)
   A  Bm/A D  Amaj7      Bm/A  E  A
e|-----------------|-----------------------------------------|
B|-2--3-3--7--5-5\-|--2--3-3---9--14--14\--------------------|
G|-2--4-4--7--6-6\-|--2--4-4---9--14--14\--------------------|
D|-2--4-4--7--6-6\-|--2--4-4---9--14--14\--------------------|
A|-0--0-0-----0-0--|--0--0-0---------------------------------|
E|-----------------|-----------------------------------------|
But I've found an ancient miracle, I thought that you should know.

Doubled by acoustic guitar
   A                    D            E
e|--------------------------------------------------------------|
B|-2--2---2-2-3p2-------7--7h8--7----9--9--9h10--9--------------| repeat
G|-2--------------2-----7--7----7----9--9--9-----9--------------| 4 times
D|-2----2---------------7--7h9--7----9--9--9h11--9--------------| w/lyrics
A|-0------------------------------------------------------------|
E|--------------------------------------------------------------|
Listen to my music,
and hear what it can do.
There's something here as strong as life.
I know that it will reach you.

    A                       D
e|------------5--5~---5-5-----------------------------------|
B|------------5--5~---5-5---7-7~-8--7--7--7.-8-----7~--7----| repeat
G|------6-6~--6--6~---6-6---7-7~-7--7--7--7.-7-----7~--7----| 4 times
D|--7~--7-7~--7--7~---7-7---7-7~-7--7--7--7.-7--7--7~--7----| w/lyrics
A|--7~--7-7~--7--7~---7-7---5-5~-5--5--5--5.-5--5--5~--5----|
E|--5~--5-5~--5--5~---5-5-----------------------5-----------|
Yes we know, it's nothing new. It's just a waste of time.
We have no need for ancient ways. Our world is doing fine.
Another toy which helped destroy the elder race of man.
Forget about your silly whim, it doesn't fit the plan. No-how.








Doubled by acoustic guitar (electric is flanged)
   A  Bm/A D  Amaj7      Bm/A  E Bm  A
e|-----------------|-----------------------------------------|
B|-2--3-3--7--5-5\-|--2--3-3---9--3--2-----------------------|
G|-2--4-4--7--6-6\-|--2--4-4---9--4--2-----------------------|
D|-2--4-4--7--6-6\-|--2--4-4---9--4--2-----------------------|
A|-0--0-0-----0-0--|--0--0-0---------0-----------------------|
E|-----------------|-----------------------------------------|
I can't believe you're saying, these things just can't be true.

Doubled by acoustic guitar (electric is flanged)
   A  Bm/A D  Amaj7      Bm/A  E  A
e|-----------------|-----------------------------------------|
B|-2--3-3--7--5-5\-|--2--3-3---9--14--14\--------------------|
G|-2--4-4--7--6-6\-|--2--4-4---9--14--14\--------------------|
D|-2--4-4--7--6-6\-|--2--4-4---9--14--14\--------------------|
A|-0--0-0-----0-0--|--0--0-0---------------------------------|
E|-----------------|-----------------------------------------|
Our world could use such beauty, just think what we might do.

Doubled by acoustic guitar
   A                    D            E
e|--------------------------------------------------------------|
B|-2--2---2-2-3p2-------7--7h8--7----9--9--9h10--9--------------| repeat
G|-2--------------2-----7--7----7----9--9--9-----9--------------| 4 times
D|-2----2---------------7--7h9--7----9--9--9h11--9--------------| w/lyrics
A|-0------------------------------------------------------------|
E|--------------------------------------------------------------|
Listen to my music,
and hear what it can do.
There's something here as strong as life.
I know that it will reach you.

Doubled by acoustic guitar
   A                    D            E
e|--------------------------------------------------------------|
B|-2--2---2-2-3p2-------7--7h8--7----9--9--9h10--9--------------| repeat
G|-2--------------2-----7--7----7----9--9--9-----9--------------| 4 times
D|-2----2---------------7--7h9--7----9--9--9h11--9--------------| w/lyrics
A|-0------------------------------------------------------------|
E|--------------------------------------------------------------|
Don't annoy us further, oh, we have our work to do.
Just think about the average. What use have they for you?
Another toy which helped destroy the elder race of man.
Forget about your silly whim, it doesn't fit the plan.

                    Bm       G       A       B
e|----------------------2-2-----3-3-----5-5-----|
B|----------------------3-3-----3-3-----5-5-----|
G|-------------------4--4-4-----4-4-----6-6-----|
D|-------------------4-------5-------7----------|
A|----------0--------2-------5-------7----------|
E|-0--2--3-----3--0----------3-------5-------7\-|
  [repeat 8 times under guitar solo in Dmaj]
  [solo with wah-wah fast + lots of bends and repetition]





                    D5
e|----------------------|
B|------------------3~--|
G|------------------2~--|
D|------------------0~--|
A|-----------0----------|
E|--0--2--3-----3-0-----|

V Oracle: The Dream (13:56 - 16:00)
   D                 C    D             F             A
e|-------5~---5------3-3--2-2------3-3--5-5------3-3--0-0-------------|
B|-----7--------7----5----3---3----5----6---6----5----2---2-----------|
G|o---7------------7--5----2-----2--5----5-----5--5----2-----2--------|
D|o-7--------------------------------------------------2--------------|
A|----------------------------------------------------0---------------|
E|--------------------------------------------------------------------|

e|--7-7--5-5----3-3--2-2----3-3--5-5---3-3--0--0---------|
B|--8----7--7---5----3--3---5----6--6--5----2---2--------| repeat
G|--7----7---7--5----2---2--5----5---5-5----2----2------o| 4 times
D|------------------------------------------2-----------o| 3+4 times
A|------------------------------------------0------------| w/lyrics
E|-------------------------------------------------------|
I wandered home through silent streets, and fell into a fitful sleep.
Escape to realms beyond the night. Dream, can't you show me the light?

 Rest of song doubled by acoustic guitar
   G  D  C  G  D Dsus4 D   C  F  C  D   A  D  A
e|-3--2--0--3--2~-3--2~----0--1--0--2--------------------|
B|-3--3--1--3--3~-3--3~----1--1--1--3---2~-3--2~---------| repeat
G|-0--2--0--0--2~-2--2~----0--2--0--2---2~-2--2~---------| 2 times
D|-0--0--2--0--0~-0--0~----2--3--2--0---2~-4--2~---------| w/lyrics
A|-2-----3--2--------------3--3--3------0~-0--0~---------|
E|-3--------3-----------------1--------------------------|
I stand atop a spiral stair; an oracle confronts me there.
He leads me on lightyears away, through astral nights, galactic days.

    Bm  G   A   D5 D/C#
e|--2~--3~-----------------|
B|--3~--3~--2~--3--3-------|
G|--4~--0~--2~--2--2--2--4-| 2 times
D|--4~--0~--2~--0--x--2--4-| w/lyrics
A|--2~--2~--0~-----4--0--2-|
E|------3~-----------------|
I see the work of gifted hands that grace the strange and wonderous land.
I see the hands of man arise with hungry mind and open eyes.

  A5 Bm   C  D  A
e|--0--2-----------------------|
B|--1--3--2--------------------|
G|--2--0--2--------------------|
D|--0--2--2--------------------|
A|--3-----0--------------------|
E|-----------------------------|







   G  D  C  G  D Dsus4 D   C  F  C  D   A  D  A
e|-3--2--0--3--2~-3--2~----0--1--0--2--------------------|
B|-3--3--1--3--3~-3--3~----1--1--1--3---2~-3--2~---------| repeat
G|-0--2--0--0--2~-2--2~----0--2--0--2---2~-2--2~---------| 3 times
D|-0--0--2--0--0~-0--0~----2--3--2--0---2~-4--2~---------| 2+3 times
A|-2-----3--2--------------3--3--3------0~-0--0~---------| w/lyrics
E|-3--------3-----------------1--------------------------|
They left our planets long ago. The elder race still learn and grow.
Their power grows with purpose strong to claim the home where they belong;

   Bm                  G             E5/D    E5
e|-2~------------------3~-------------0.-----0~----|
B|-3~------------------3~-------------0.-----0~----|
G|-4~------------------0~-------------x------x-----|
D|-4~------------------0~-------------0.-----2~----|
A|-2~------------------2~--------------------2~----|
E|---------------------3~--------------------0~----|
     home to tear the Temples down, home to change....

VI Soliloquy (16:01 - 18:18)
There appears to be phaser throughout this part (except for the guitar doing the soloing)

   D              C     G/B       Dm/F   Em7          D
e|-----2----------------------------------------------2-----|
B|-------3~----------------------------3--------------3-----|
G|---2------2~-0------0-----0--------2------0---------2-----|
D|-0----------------2-----0---0----3-----2~----0h3p0--0-----|
A|----------------3-----2~----------------------------------|
E|----------------------------------------------------------|
                                                                \
After the first time it goes like this:                           4
   D              C     G/B       Dm/F   Em7           D        / times
e|-2---------------------------------------------------2----|     3rd+4th
B|---3--------3-----------------------3----------------3----|     times
G|-----2----2---0-----0-----0-------2-------0----------2----|     w/lyrics
D|-------0~---------2-----0---0---3------2~-----0h3p0--0----|
A|----------------3-----2~----------------------------------|
E|----------------------------------------------------------|
The sleep is still in my eyes, the dream is still in my head.
I heave a sigh and sadly smile, and lie a while in bed.

   Am7          C/G         F                    C5  G5
e|--------0-----------0-------------1------------------------|
B|----------1-----------1-------------1---1------------------| 3
G|-----0------0-----0------------2------2--------5-----------| times
D|-2-2------------2------------3------------3~---5---5-------| with
A|-0------------------------3--------------------3---5-------| lyrics
E|--------------3-----------1------------------------3-------|
I wish that it might come to pass, not fade like all my dreams.
Just think of what my life might be, in a world like I have seen.
I don't think I can carry on, carry on this cold and empty life.
Oh, no...

   Am7          C/G         F                    C5  G5
e|--------0-----------0-------------1------------------------|
B|----------1-----------1-------------1---1------------------| 5
G|-----0------0-----0------------2------2--------5-----------| times
D|-2-2------------2------------3------------3~---5---5-------| under
A|-0------------------------3--------------------3---5-------| solo
E|--------------3-----------1------------------------3-------|

  [Solo]
e|-------------------------------------------------------------------|
B|-------------------------------------------------------------------|
G|-------------------------------------------------------------------|
D|-----------------------------------3-5--5~~----5h7~~---5h7-7-5-7~~-|
A|---------------------x\--------3-5---------------------------------|
E|--3-3-3-3-3-3-3h5~---x\--5~~---------------------------------------|

e|-------------------------------------------------------------------|
B|-------------------------------------------------------------------|
G|------5---5--7b9r7p5---5--7b9~~~r7--7b9--7b9r7--7-7-7-7b9r7--5-5-5-|
D|--7-5---7------------7---------------------------------------------|
A|-------------------------------------------------------------------|
E|-------------------------------------------------------------------|

e|-----------------|-------------------------------------12-15-------|
B|-----------------|------13-15-15b17r15p13----13-15b17--------------|
G|-7-7b9r7-5-------|--/14-------------------14-----------------------|
D|-----------7-5-7-|-------------------------------------------------|
A|-----------------|-------------------------------------------------|
E|-----------------|-------------------------------------------------|

e|-15b17r15b17~~--15b17~-15b17~----17b19~-17b19~~~~--17-17b19-17-----|
B|-------------------------------------------------------------------|
G|-------------------------------------------------------------------|
D|-------------------------------------------------------------------|
A|-------------------------------------------------------------------|
E|-------------------------------------------------------------------|

e|-18b20~~--18b20~--18b20~-18b20~--|---------------------------------|
B|---------------------------------|-------8~----8~------------------|
G|---------------------------------|-------7b9~~~~----7b9--7~--5--[7]|
D|---------------------------------|---------------------------------|
A|---------------------------------|---x\----------------------------|
E|---------------------------------|---x\----------------------------|

e|---------------------------|
B|---------------------------|
G|------5-7b9-7p5-5----------|
D|--5h7-------------7-5-7~---|
A|---------------------------|
E|---------------------------|

e|-------------------------------------------------------------------|
B|-------------------------------------------------------------------|
G|-----5-5-5-5-----5-5-5------5-7b9r7p5---5-7b9r7-7p5---5-7b9r7p5---5|
D|-5h7---------5h7--------5h7-----------7-------------7-----------7--|
A|-------------------------------------------------------------------|
E|-------------------------------------------------------------------|

e|-------------------------------------------------------------------|
B|-------------------------------------------------------------------|
G|-[7b9]~~~----------------------------------------------------------|
D|-------------------------------------------------------------------|
A|-------------------------------------------------------------------|
E|-------------------------------------------------------------------|
  [end solo]




   Am7         C/G                                        E5
e|-------0-----------0-----------------------------------------|
B|---------1-----------1---------------------------------------|
G|-----0-----0-----0------2--2-2-2-2-2-2-2-2-2-2-2-2-2-2-------|
D|-2-2-----------2--------3--3-3-3-3-3-3-3-3-3-3-3-3-3-3--2~---|
A|-0----------------------3--3-3-3-3-3-3-3-3-3-3-3-3-3-3--2~---|
E|-------------3----------1--1-1-1-1-1-1-1-1-1-1-1-1-1-1--0~---|
My spirits are low in the depths of despair, my lifeblood... spills over.

VII: Grand Finale (18:19 - 20:32)

Freely
    E5                  D      A5
e|------------------------------------------------------------|
B|----------------------8--7----------------------------------|
G|--9---9-9-9-9-9-9-----7--7-------7--------------------------|
D|--9---9-9-9-9-9-9-----7--7---7---7--------------------------| 12
A|--7---7-7-7-7-7-7-----5--5---7---5--------------------------| times
E|--0---0-0-0-0-0-0------------5------------------------------|

   E5                                            Esus2 Dsus2 Csus2
e|-0--0--0--0--0--0--0--0----------------------------7~--5~--3~-|
B|-0--0--0--0--0--0--0--0---7--7--7--7--7--7--7--7---7~--5~--3~-|
G|-9--9--9--9--9--9--9--9---7--7--7--7--7--7--7--7---9~--7~--5~-|
D|-9--9--9--9--9--9--9--9---7--7--7--7--7--7--7--7---9~--7~--5~-|
A|-7--7--7--7--7--7--7--7---5--5--5--5--5--5--5--5---7~--5~--3~-|
E|-0--0--0--0--0--0--0--0---------------------------------------|

Freely
     B                        E    D         C
e|---------------------|-7--7-7-7--5--5-5-5--3-3-3-3-3-3---|
B|---------------------|-7--7-7-7--5--5-5-5--3-3-3-3-3-3---| 8 times
G|--------------------o|-9--9-9-9--7--7-7-7--5-5-5-5-5-5---| during
D|---4---4---4----4---o|-9--9-9-9--7--7-7-7--5-5-5-5-5-5---| solo
A|---2-0-2-0-2--0-2----|-7--7-7-7--5--5-5-5--3-3-3-3-3-3---|
E|---------------------|-----------------------------------|

Solo with partially depressed wah-wah
     B
e|------------------|------------------|------------------|
B|------------------|------------------|------------------|
G|------------------|------------------|------------------|
D|--4---4---4----4--|--4---4---4----4--|--4---4---4----4--|
A|--2-0-2-0-2--0-2--|--2-0-2-0-2--0-2--|--2-0-2-0-2--0-2--|
E|------------------|------------------|------------------|

   F#5 G5 A5 B5 C5 D5 E5 G5    F#5 G5 A5 B5            B5
e|-----------------------------------------|------------------|
B|-----------------------------------------|------------------|
G|--------------5--7--9--12\---------------|-----------4--5--7|
D|--4--5--7--9--5--7--9--12\----4--5--7--9-|--4--5--7--4--5--7|
A|--4--5--7--9--3--5--7--10\----4--5--7--9-|--4--5--7--2--3--5|
E|--2--3--5--7------------------2--3--5--7-|--2--3--5---------|

                       F#m
e|------------------|---2---2----2--2------|
B|------------------|---2---2----2--2------|
G|-----------4--5--7|o--2---2----2--2-----o|
D|--4--5--7--4--5--7|o--4---4----4--4-----o|
A|--4--5--7--2--3--5|---4---4----4--4------|
E|--2--3--5---------|---2---2----2--2------|
Use pick slides, wah-wah, tremolo bar dives, and feedback.

Repeat: Attention all planets of the Solar Federation!

        We have assumed control!
        We have assumed control!
        We have assumed control...

PLEASE E-MAIL ANY CORRECTIONS TO 20walbone@burgoyne.beds.sch.uk
  development and support by
dmitry ivanov