rock
 
|tablatures   |lyrics   |discussion forums   |more tabs @ XGuitar.com

Rush tabs

2112 Overture/The Temples of Syrinx bass tab

From: adam@micromuse.co.uk (Adam Kerrison)

Well, here it is - 2112 for bass as requested by:

rwyoung@csugrad.cs.vt.edu, mikeh@cbnewsg.att.com, manitp@rpi.edu and
dolinky@seas.ucla.edu - Thanks


NOTES:

1. Dont expect this to be perfect. Most of it is right (or at least close)
The rest is how I play it ....

2. Learn the Overture first. Most of the riffs in the Overture appear in the
rest of the song so once you know that the rest is easier.

3. Mail any comments/changes to me (adam@micromuse.co.uk) and I'll change them

4. If you want the original BTC files I'll mail them to you if you ask me.


"2112" I - Overture
===================


    e   q H     Q e e     w   q h e e     q Q e     q h+e e   q h+e e
+-----+-----+---------+-----+---------+---------+-----------+---------+
|4:---|---R-|5:-R-----|4:---|---R-----|3:---R---|4:---R-----|---R-----|
|4:---|-----|8:---3---|4:-5-|-3---0-0-|4:-0-----|4:-------3-|---------|
+---0-+-5---+-------3-+-----+---------+-------0-+---5-------+-3-----0-+


    q h+e e e   q e e q e     q h+e e   q h+e e     e h+e e e     H e
+-------------+-----------+-----------+---------+-------------+-------+
|9:---R-------|-----------|4:---R-----|---R-----|9:---R-------|7:-----|
|8:-------3---|-5-3---5---|4:-------3-|---------|8:-------3---|8:-5---|
+---5-------3-+-----3---0-+---5-------+-3-----0-+---5-------3-+-----0-+


    q h+e e   q h+e e     q e e q e e e     q e e q e     e e e e e e e e
+-----------+---------+-----------------+-------------+---4-----------4---+
|4:---R-----|---R-----|9:---R-----R-----|7:-----------|4:---R-7-R-5-R---R-|
|4:-------3-|---------|8:-------5---3---|8:-5-3---5-5-|4:-----------------|
+---5-------+-3-----0-+---5---3-------3-+-------3-----+-------------------+


    Q e     w   +w   e e e e e e e e     Q e     w   +H e   e   w   w   w   w
+-------+-----+----+-----------------+-------+-----+----------+---+---+---+---+
|2:-----|4:---|----|-5-R-7-R-5-R-4-R-|2:-----|4:---|--------R-|-R-|-R-|-R-|-R-|
|4:-5-0-|4:-5-|--5-|-----------------|4:-7-4-|4:---|----7X---|---|---|---|---|
+-------+-----+----+-----------------+-------+---5-+--5-------+---+---+---+---+


  e e e e e e e e   e e e e e e e e   e e e e q e e   e e e e e q e
+-----------------+-----------------+---------------+---------------+
|-----------------|-----------------|---------------|---------------|
|-2-1-2-1-2-1-2-0-|-------------5-4-|---------7-5-4-|-2-1-2-1-2-5-5-|
+-----------------+-3-2-3-2-3-2-----+-5-4-5-4-------+---------------+


  e e e e e e e e   e e e e e e e e   e e e e q e e   e e e e e q e
+-----------------+-----------------+---------------+---------------+
|-----------------|-----------------|---------------|---------------|
|-2-1-2-1-2-1-2-0-|-------------5-4-|---------7-5-4-|-2-1-2-1-2-5-5-|
+-----------------+-3-2-3-2-3-2-----+-5-4-5-4-------+---------------+


  q q q e e   q q q e e   q q q e e   e e e e e e e e   +w   +w   +w
+-----------+-----------+-----------+-----------------+----+----+----+
|-----------|-----------|-----------|-----------------|----|----|----|
|-2-2-2-2-0-|-------5-4-|-----7-5-4-|-2---------------|----|----|----|
+-----------+-3-3-3-----+-5-5-------+---0-2-3-5-3-0-5-+--5-+--5-+--5-+


  e e e e e e q   +w   +w   +w   e e e e e e q   +e e Q e q   +H s s e
+---------------+----+----+----+---------------+------------+----------+
|---------------|----|----|----|---------------|--------7-7-|--7-7H9P7-|
|---------------|----|----|----|---------------|----4-4-----|----------|
+-0-2-3-5-3-0-5-+--5-+--5-+--5-+-0-2-3-5-3-0-5-+--5---------+----------+


  +H s s e   e e e e e e q   +e e Q e q   +H s s e   +H s s e     e e e e e e
+----------+---------------+------------+----------+----------+---------------+
|--7-7H9P7-|---------------|--------7-7-|--7-7H9P7-|--7-7H9P7-|3:-------------|
|----------|---------------|----4-4-----|----------|----------|4:-------------|
+----------+-0-2-3-5-3-0-5-+--5---------+----------+----------+---0-2-3-5-3-0-+


    q e e q e e   H q   h e E E   h e E E   h e E E   E E e e e q     h e E E
+---------------+-----+---------+---------+---------+---------------+---------+
|4:---R-----R-9-|-9-R-|---R-----|---R-----|---R-----|---------R-9X-|---R-----|
|4:-2---6-6-----|-----|-2---2-0-|---------|---------|-5-4-0-2-------|-2---2-0-|
+---------------+-----+---------+-3---2-3-+-5---3-5-+---------------+---------+


  h e E E   h e E E     E E e    e H e   +e H e   +e H+e   e Q q q    w
+---------+---------+---------+--------+--------+--------+----------+---+
|---R-----|---R-----|2:-------|*---R---|----R---|----R---|-R-------*|---|
|---------|---------|4:-5-4-0-|*-2---2-|--2---2-|--2-----|---5---7-*|---|
+-3---2-3-+-5---3-5-+---------+--------+--------+--------+-----5----+-5-+


  h+Q e   h+Q e   e e e e E E e    h q e e   Q e e e e e   Q e h
+-------+-------+---------------+----------+-------------+-------+
|-------|-------|-------R-------|*---2-----|-------------|-------|
|-3-3-5-|-------|---------3---3-|*-0---0-2-|-3-2-3-2-----|-------|
+-------+-1-1-1-+-1-1-1-----3---+----------+---------3-2-+-1-0-1-+


  e e q E E e 3  h q e e   Q e e e e e   h+e e e e   e e e e e e e e
+--------------+---------+-------------+-----------+-----------------+
|-------------*|---2-----|-------------|-----------|-----------R---R-|
|-------3---3-*|-0---0-2-|-3-2-3-2-----|-----------|-------------3---|
+-1-0-1---3----+---------+---------3-2-+-1-1-1-1-1-+-1-1-1-1-1-------+


  e s e e s e e e e   e s e e s e e e e   e s e e s e e e e
+-------------------+-------------------+-------------------+
|-------------R---R-|-------------R---R-|-------------R---R-|
|-2-2-2-2-2-2---5---|-2-2-2-2-2-2-------|-2-2-2-2-2-2---5---|
+-------------------+---------------3---+-------------------+


  e s e e s e e e e   e s e e s e e e e   e s e e s e e e e
+-------------------+-------------------+-------------------+
|-------------R---R-|-------------R---R-|-------------R---R-|
|-2-2-2-2-2-2-------|-2-2-2-2-2-2---5---|-2-2-2-2-2-2-------|
+---------------3---+-------------------+---------------3---+


  e s e e s e e e e   e s e e s e e e e   e e s s e e e s s e   E E E E e e
+-------------------+-------------------+---------------------+-------------+
|-------------R---R-|-------------------|-R---------R---------|-----------R-|
|-2-2-2-2-2-2---5---|-2-2-2-2-2-2-4-5-6-|---7-----7---5-----5-|-3-2-3-2-3---|
+-------------------+-------------------+-----7-7-------5-5---+-------------+


  e s e e s e e e e   e s e e s e e e e   e e s s e e e s s e   E E E E e e
+-------------------+-------------------+---------------------+---------5-4-+
|-------------R---R-|-------------R---R-|-R---------R---------|-----5-4-----|
|-2-2-2-2-2-2---5---|-2-2-2-2-2-2-------|---7-----7---5-----5-|-3-2---------|
+-------------------+---------------3---+-----7-7-------5-5---+-------------+


  e s e e s e e e e   e s e e s e e e e   e s e e s e e e e
+-------------------+-------------------+-------------------+
|-------------R---R-|-------------R---R-|-------------R---R-|
|-2-2-2-2-2-2---5---|-2-2-2-2-2-2-------|-2-2-2-2-2-2---5---|
+-------------------+---------------3---+-------------------+


  e s e e s e e e e   s s s e e s e e e e   s s s e e s e e e e
+-------------------+---------------------+---------------------+
|-------------R---R-|-------------------2-|---------------------|
|-2-2-2-2-2-2-------|-2-2-2-2-2-2-2-4-5---|-2-2-2-2-2-2-2-------|
+---------------3---+---------------------+---------------5-3-2-+


  s s s e e s e e e e     s s s e e s e e     h+Q e e     q e e q e
+---------------------+-------------------+-----------+-------------+
|-------------------2-|3:-----------------|9:---------|7:-----------|
|-2-2-2-2-2-2-2-4-5---|4:-2-2-2-2-2-2-2-2-|8:-----3---|8:-5-3---5---|
+---------------------+-------------------+---3-----3-+-------3---3-+


    q s s s s q s s s s   q s s s s q s s s s   w   +H q   w   w   h+Q
+-----------------------+---------------------+---+------+---+---+-----+
|4:---------------------|---------------------|---|----R-|-R-|-R-|-R-R-|
|4:---------------------|---------------------|---|------|---|---|-----|
+---0-0-0-0-0-0-0-0-0-0-+-0-0-0-0-0-0-0-0-0-0-+-0-+--0---+---+---+-----+


"2112" II - The Temples of Syrinx
=================================


  e      E s e e E s e e   E s e e e q e   E s e e E s e e   h+Q e
+---+--------------------+---------------+-----------------+--------+
|---|*4:-----------------|---------------|-----------------|-------*|
|---|*4:---------------3-|-------3---5---|---------------3-|-------*|
+-0-+----5-5-5-0-5-5-5---+-3-3-3---3---0-+-5-5-5-0-5-5-5---+-3---0--+


  E s e e E s e e   E s e e e q e   E s e e E s e e   h+Q e   E s e e E s e e
+-----------------+---------------+-----------------+-------+-----------------+
|-----------------|---------------|-----------------|-------|-----------------|
|---------------3-|-------3---5---|---------------3-|-------|---------------3-|
+-5-5-5-0-5-5-5---+-3-3-3---3---0-+-5-5-5-0-5-5-5---+-3---0-+-5-5-5-0-5-5-5---+


  E s e e e q e   E s e e E s e e   e e e e e e e e    +e e e e e e e e
+---------------+-----------------+-----------------+-------------------+
|---------------|-----------------|-----------------|*------------------|
|-------3---5---|---------------3-|---------------2-|*--2-1-2-1-2-------|
+-3-3-3---3---0-+-5-5-5-0-5-5-5---+-3-0-2-3-5-3-0---+-------------0-2-3-+


  +e e e e e e e e   +e e e e e e e e   +e e e e e e e e 3  +e e e e e e e e
+------------------+------------------+-------------------+------------------+
|------------------|------------------|------------------*|------------------|
|------------------|----------------2-|--2-------------2-*|--2-1-2-1-2-------|
+--3-2-3-2-3-2-3-5-+--5-4-5-4-5-4-5---+----0-2-3-5-3-0----+------------0-2-3-+


  +e e e e e e e e   +e e e e e e e e   +e e e e e e e e   s s s e e s e e e e
+------------------+------------------+------------------+---------------------+
|------------------|------------------|----------------R-|---------------R---R-|
|------------------|----------------2-|--2-----------5---|-2-2-2-2-2-2-2---5---|
+--3-2-3-2-3-2-3-5-+--5-4-5-4-5-4-5---+----0-2-3-5-3-----+---------------------+


  s s s e e s e e e e   s s s e e s e e e e     s s s e e s e e     w
+---------------------+---------------------+-------------------+-----+
|---------------R---R-|---------------R---R-|3:---------------R-|4:---|
|-2-2-2-2-2-2-2-------|-2-2-2-2-2-2-2---5---|4:-2-2-2-2-2-2-2---|4:---|
+-----------------3---+---------------------+-------------------+---3-+


  e e e e e e e e   E s e e E s e e   E s e e e q e   E s e e E s e e   h+Q e
+-----------------+-----------------+---------------+-----------------+-------+
|-----------------|-----------------|---------------|-----------------|-------|
|-----------------|---------------3-|-------3---5---|---------------3-|-------|
+-3-3-3-3-3-3-3-0-+-5-5-5-0-5-5-5---+-3-3-3---3---0-+-5-5-5-0-5-5-5---+-3---0-+


  E s e e E s e e   E s e e e q e   E s e e E s e e   e e e e e e e e
+-----------------+---------------+-----------------+-----------------+
|-----------------|---------------|-----------------|-----------------|
|---------------3-|-------3---5---|---------------3-|---------------2-|
+-5-5-5-0-5-5-5---+-3-3-3---3---0-+-5-5-5-0-5-5-5---+-3-0-2-3-5-3-0---+


   +e e e e e e e e   +e e e e e e e e   +e e e e e e e e   +e e e e e e e e 3
+-------------------+------------------+------------------+-------------------+
|*------------------|------------------|------------------|------------------*|
|*--2-1-2-1-2-------|------------------|----------------2-|--2-------------2-*|
+-------------0-2-3-+--3-2-3-2-3-2-3-5-+--5-4-5-4-5-4-5---+----0-2-3-5-3-0----+


  +e e e e e e e e   +e e e e e e e e   +e e e e e e e e   +e e e e e e e e
+------------------+------------------+------------------+------------------+
|------------------|------------------|------------------|----------------R-|
|--2-1-2-1-2-------|------------------|----------------2-|--2-----------5---|
+------------0-2-3-+--3-2-3-2-3-2-3-5-+--5-4-5-4-5-4-5---+----0-2-3-5-3-----+


  s s s e e s e e e e   s s s e e s e e e e   s s s e e s e e e e
+---------------------+---------------------+---------------------+
|---------------R---R-|---------------R---R-|---------------R---R-|
|-2-2-2-2-2-2-2---5---|-2-2-2-2-2-2-2-------|-2-2-2-2-2-2-2---5---|
+---------------------+-----------------3---+---------------------+


    s s s e e s e e     w
+-------------------+-----+
|3:---------------R-|4:---|
|4:-2-2-2-2-2-2-2---|4:---|
+-------------------+---3-+

"2112" III - Discovery
======================

No bass !!!


"2112" IV - Presentation
========================


    Q e Q e   Q q e e e   Q e q e e   e e e e e e e e   Q e Q e   Q q e e e
+-----------+-----------+-----------+-----------------+---------+-----------+
|4:-------7-|-7-5-4-----|-----------|-R-5-R-4-R-5-----|-------7-|-7-5-4-----|
|4:---4-4---|-------7-6-|-5---5---5-|-------------5-7-|---4-4---|-------7-6-|
+---5-------+-----------+---5---5---+-----------------+-5-------+-----------+


  Q e s s e e e   e e e e e e e e   Q e e q e   Q e e e e e   Q e e q e
+---------------+-----------------+-----------+-------4-----+-----------+
|---------------|-R-5-R-4-R-5-----|-----R---R-|-4---R---7---|-----R---R-|
|-5---5---5---5-|-------------5-7-|-----------|---7-------7-|-----------|
+---5---5---5---+-----------------+-5-7---7---+-------------+-5-7---7---+


  e q e e e s s e   Q e e q e   Q e e e e e   Q e e q e    e e  e e e e e s s
+-9-6-4-----------+-----------+-------4-----+-----------+-11-9----------------+
|-------R-7-4-----|-----R---R-|-4---R---7---|-----R---R-|------11-9-7---------|
|-------------7-4-|-----------|---7-------7-|-----------|-------------9-7-----|
+-----------------+-5-7---7---+-------------+-5-7---7---+-----------------9-7-+


   Q e+h   e e e q s s e e 4  Q e Q e   Q q e e e   Q e q e e
+--------+------------------+---------+-----------+-----------+
|*-------|-R-5-4-6-6H7P6---*|-------7-|-7-5-4-----|-----------|
|*---5---|---------------7-*|---4-4---|-------7-6-|-5---5---5-|
+--5-----+------------------+-5-------+-----------+---5---5---+


  e e e e e e e e   Q s s e e e e   Q q e e e   Q e q e e   e e e e e e e e
+-----------------+---------------+-----------+-----------+-----------------+
|-R-5-R-4-R-5-----|-------------7-|-7-5-4-----|-----------|-R-5-R-4-R-5-----|
|-------------5-7-|---4-4-4-4-4---|-------7-6-|-5---5---5-|-------------5-7-|
+-----------------+-5-------------+-----------+---5---5---+-----------------+


  Q e Q s s   e q q e e e   Q e e e q   e e e e e e e e   e e e e Q s s
+-----------+-------------+-----------+-----------------+---------------+
|-------7-7-|-7-9-7-5-4---|-------R---|-R-5-R-4-R-5-----|-----------7-7-|
|---4-4-----|-----------7-|-5---5---5-|-------------5-7-|-------4-4-----|
+-5---------+-------------+---5-------+-----------------+-5-5-5---------+


  e s s e s s e e e e   Q e q e e   e e e e e e e e   Q e e q e   Q e e e e e
+---------------------+-----------+-----------------+-----------+-------4-----+
|-7-7-7-7-5-5-5-4-----|-----------|-R-5-R-4-R-5-----|-----R---R-|-4---R---7---|
|-----------------7-6-|-5---5---5-|-------------5-7-|-----------|---7-------7-|
+---------------------+---5---5---+-----------------+-5-7---7---+-------------+


  Q e e q e   e q e e e s s e   Q e e q e   Q e e e e e   Q e e q s  s
+-----------+-9-6-4-----------+-----------+-------4-----+---------9H11-+
|-----R---R-|-------R-7-4-----|-----R---R-|-4---R---7---|-----R--------|
|-----------|-------------7-4-|-----------|---7-------7-|--------------|
+-5-7---7---+-----------------+-5-7---7---+-------------+-5-7---7------+


   e  e e e s s e e s s    Q e+h   e e e q s s e e 4   Q e Q e   Q q e e e
+-P9--------------------+--------+------------------+----------+-----------+
|----11-9-7-9P7---------|*-------|-R-5-4-6-6H7P6---*|*-------7-|-7-5-4-----|
|---------------9-7-----|*---5---|---------------7-*|*---4-4---|-------7-6-|
+-------------------9-7-+--5-----+------------------+--5-------+-----------+


  Q e q e e   e e e e e e e e 3  Q e Q e   Q q e e e   Q e q e e   e H e
+-----------+------------------+---------+-----------+-----------+-------+
|-----------|-R-5-R-4-R-5-----*|-------7-|-7-5-4-----|-----------|---R---|
|-5---5---5-|-------------5-7-*|---4-4---|-------7-6-|-5---5---5-|-----2-|
+---5---5---+------------------+-5-------+-----------+---5---5---+-3-----+


   +e e e e e e e e   +e e e e e e e e   +e e e e e e e e   +e e e e e e e e 7
+-------------------+------------------+------------------+-------------------+
|*------------------|------------------|------------------|------------------*|
|*--2-1-2-1-2-------|------------------|----------------2-|--2-------------2-*|
+-------------0-2-3-+--3-2-3-2-3-2-3-5-+--5-4-5-4-5-4-5---+----0-2-3-5-3-0----+


  e e e e e e e e   +e e e e e e e e   +e e e e e e e e   +e e e e e e e e
+-----------------+------------------+------------------+------------------+
|-----------------|------------------|------------------|------------------|
|-2-1-2-1-2-------|------------------|----------------2-|--2-------------5-|
+-----------0-2-3-+--3-2-3-2-3-2-3-5-+--5-4-5-4-5-4-5---+----0-2-3-5-3-0---+


  +w
+----+
|----|
|--5-|
+----+

"2112" V - Oracle: The Dream
============================


  w   +w   +w   +w   +w   +w   +w   +w   +w   +w   +w   +w   +w   +w   +w   +w
+---+----+----+----+----+----+----+----+----+----+----+----+----+----+----+----+
|-R-|----|----|----|----|----|----|----|----|----|----|----|----|----|----|----|
|---|----|----|----|----|----|----|----|----|----|----|----|----|----|----|----|
+---+----+----+----+----+----+----+----+----+----+----+----+----+----+----+----+


  +w      q e e e e e e   Q e h   e e e e e e e e   Q e h    h+e e q   h+e e q
+----+----4---------4---+-------+-----------------+--------+---------+---------+
|----|*4:---7-R-5-R---R-|-------|-5-R-7-R-5-R-4-R-|-------*|---------|---------|
|----|*4:---------------|-5-0-5-|-----------------|-7-4---*|-2-------|---------|
+----+------------------+-------+-----------------+-----5--+-----0-2-+-3---2-3-+


  h+e e q   q^q^q e Q     h+e e q   h+e e q   h+e e q   q^q^q e Q     q q q
+---------+-------------+---------+---------+---------+-----------+---------+
|---------|---------9X-|---------|---------|---------|---------R-|3:-------|
|---------|-5-4-0-2-----|-2-------|---------|---------|-5-4-0-2---|4:-3-5-0-|
+-5---4-5-+-------------+-----0-2-+-3---2-3-+-5---4-5-+-----------+---------+


    q e e e e e e   Q e h   e e e e e e e e   Q e h    q e e e e e e   Q e h
+---4---------4---+-------+-----------------+-------+--4---------4---+-------+
|4:---7-R-5-R---R-|-------|-5-R-7-R-5-R-4-R-|-------|*---7-R-5-R---R-|-------|
|4:---------------|-5-0-5-|-----------------|-7-4---|*---------------|-5-0-5-|
+-----------------+-------+-----------------+-----5-+----------------+-------+


  e e e e e e e e   Q e h    h+e e q   h+e e q   q e e+h   +w
+-----------------+--------+---------+---------+---------+----+
|-5-R-7-R-5-R-4-R-|-------*|---------|---------|---R-----|----|
|-----------------|-7-4---*|-2-------|---------|-5-------|----|
+-----------------+-----5--+-----0-2-+-3---2-3-+-----0---+----+

"2112" VI - Soliloquy
=====================


  w   +w   +w   +w   +w   +w   +w   +w   +w   +w   +w   +w   +w   +w   +w   +w
+---+----+----+----+----+----+----+----+----+----+----+----+----+----+----+----+
|-R-|----|----|----|----|----|----|----|----|----|----|----|----|----|----|----|
|---|----|----|----|----|----|----|----|----|----|----|----|----|----|----|----|
+---+----+----+----+----+----+----+----+----+----+----+----+----+----+----+----+


  +w   +w   +w     h e e q    h q e e   Q e q e e   Q e Q e   e e q e e q
+----+----+----+-----------+----------+-----------+---------+--------------+
|----|----|----|4:-R-----R-|*---2-----|-----------|---------|-----------R-*|
|----|----|----|4:---3-----|*-0---0-2-|-3-2-3-----|---------|-------3-----*|
+----+----+----+-------3---+----------+-------3-2-+-1-0-1-0-+-1-0-1---3----+


  h q e e   Q e q e e   Q e Q e   e e q e e q    h q e e   Q e q e e   Q e Q e
+---------+-----------+---------+-------------+----------+-----------+---------+
|---2-----|-------5-4-|-3-2-3-2-|-3-2-3-----R-|*---2-----|-----------|---------|
|-0---0-2-|-3-2-3-----|---------|-------3-----|*-0---0-2-|-3-2-3-----|---------|
+---------+-----------+---------+---------3---+----------+-------3-2-+-1-0-1-0-+


  e e q e e q 3  h q e e   Q e q e e   Q e Q e   e e q e e q   h q e e
+--------------+---------+-----------+---------+-------------+---------+
|-----------R-*|---2-----|-------5-4-|-3-2-3-2-|-3-2-3-----R-|---2-----|
|-------3-----*|-0---0-2-|-3-2-3-----|---------|-------3-----|-0---0-2-|
+-1-0-1---3----+---------+-----------+---------+---------3---+---------+


  Q e e e e e   Q e e e e e   e e e e e e e e   w
+-------------+-------------+-----------------+---+
|-----------5-|-3-3-3-3-3-3-|-3-3-3-3---------|---|
|-3-2-3-2-3---|-------------|---------3-3-----|---|
+-------------+-------------+-------------1-1-+-0-+

"2112" VII - Grand Finale
=========================


    w   +w   +w   +w   Q e Q e   Q e Q e   q q e q e   q e q e q
+-----+----+----+----+---------+---------+-----------+-----------+
|4:-R-|----|----|----|---------|---------|-----------|-----------|
|4:---|----|----|----|-----7---|-----7---|---7---7---|-7---7---7-|
+-----+----+----+----+-0-0---0-+-0-0---0-+-0---0---0-+---0---0---+


   q q e e q e   e q e e q e 7  q q e e q e   e q e e q e   e e e e e e e e
+--------------+--------------+-------------+-------------+-----------------+
|*-------------|-------R-----*|-------------|-------R---R-|-----------------|
|*---7-----7---|-5-4-----5-7-*|---7-----7---|-5-4-----5---|-7-7-7-7-7-7-7-7-|
+--0---0-0---0-+-----5--------+-0---0-0---0-+-----5-------+-----------------+


  e e e e e e e e   h h   Q h+e     e h+e   e h+e   Q Q Q Q   e e e e e e
+-----------------+-----+-------+---------+-------+---------+-------------+
|-----------------|-----|---R---|6:---R---|---R---|---9---7-|-------------|
|-5-5-5-5-5-5-5-5-|-7-5-|-3-----|8:-2-----|-2-----|-7---5---|-3-2-3-3-3-3-|
+-----------------+-----+-------+---------+-------+---------+-------------+


  e s e s e e e   e s e s e e e   e s Q e s Q   e e e e e e   e s e s e e e
+---------------+---------------+-----9-----7-+---5-4-2-----+---------------+
|---------------|---------------|---9-----7---|---------5-2-|---------------|
|-2-0-2-0-2-0-2-|-2-0-2-0-2-0-2-|-7-----5-----|-3-----------|-2-0-2-0-2-0-2-|
+---------------+---------------+-------------+-------------+---------------+


  e s e s e e e   e s Q e s Q   e e e e e e   e s e s e e e   e s e s e e e
+---------------+-----9-----7-+-------------+---------------+---------------+
|---------------|---9-----7---|-----------5-|---------------|---------------|
|-2-0-2-0-2-0-2-|-7-----5-----|-3-2-3-5-3---|-2-0-2-0-2-0-2-|-2-0-2-0-2-0-2-|
+---------------+-------------+-------------+---------------+---------------+


  e s^s^s s^s^s e s^s^s s^s^s   e e e e e e   e s e s e e e   e s e s e e e
+---------6-7-9---------4-5-7-+-------------+---------------+---------------+
|---6-7-9---------4-5-7-------|-------2-----|---------------|---------------|
|-7-------------5-------------|-3-2-3---5-3-|-2-0-2-0-2-0-2-|-2-0-2-0-2-0-2-|
+-----------------------------+-------------+---------------+---------------+


  e s Q e s Q   e e e e e e   e s e s e e e   e s e s e e e   Q Q Q Q
+-----9-----7-+-5-4-2-------+---------------+---------------+---------+
|---9-----7---|-------5-2---|---------------|---------------|---9---7-|
|-7-----5-----|-----------3-|-2-0-2-0-2-0-2-|-2-0-2-0-2-0-2-|-7---5---|
+-------------+-------------+---------------+---------------+---------+


  e e e e e e   e s e s e e e   e s e s e e e   Q s Q Q s Q   e e e e e e
+-------------+---------------+---------------+-----9-----7-+---5-4-2-----+
|-------------|---------------|---------------|---9-----7---|---------5-2-|
|-3-2-3-2-3-2-|-2-0-2-0-2-0-2-|-2-0-2-0-2-0-2-|-7-----5-----|-3-----------|
+-------------+---------------+---------------+-------------+-------------+


  e s e s e e e   e s e s e e e   e s e s e e e   Q Q   Q Q   Q Q   Q Q   Q Q
+---------------+---------------+---------------+-----+-----+-----+-----+-----+
|---------------|---------------|---------------|-----|-----|-----|-2-5-|-----|
|-2-0-2-0-2-0-2-|-2-0-2-0-2-0-2-|-2-0-2-0-2-0---|-----|---2-|-3-5-|-----|-----|
+---------------+---------------+-------------3-+-2-3-+-5---+-----+-----+-2-3-+


  Q Q   e e e e e e   e e e e e e    s e e s s e e s   s e e s s e e s    w
+-----+-------------+-------------+------------------+------------------+---+
|-----|-------------|-------------|*-4-4-4-2-4-4-4-2-|-4-4-4-2-4-4-4-2-*|-4-|
|---2-|-------2-3-5-|-------2-3-5-|*-----------------|-----------------*|---|
+-5---+-2-3-5-------+-2-3-5-------+------------------+------------------+---+

==========================================================================

          Created using "The Bass Tab Creator" by Mario D'Alessio
     __
   +|oo|+       Notes:
   +|oo|+               w = Whole  h = Half  q = Quarter
     ||                 e = 8th    s = 16th  t = 32nd  x = 64th
     ||
     ||                 Capitol notes are dotted notes (1.5 x duration)
     ||
     ||             n
     ||         +----+                     +----+
     ||         |*--*+  = MEASURE          |4:--|  = TIME
  _  ||  _      |*--*+    REPEATS          |4:--|    SIGNATURES
  \_||_//      +----+   (n=Num Repeats)   +----+
   | [] |
   | || |       + = TIE         ^  = TRIPLET           ^ = BEND
  /  []        H = HAMMER ON     = SLIDE TO FRET     R = REST
  \______/      P = PULL OFF    /X = SLIDE TO NOWHERE  ~ = TRILL



---

Have fun

Adam
===========================================================================
Adam Kerrison                  | Phone : +44 71 352 7774
Technical Support              | Fax   : +44 71 351 7834
MicroMuse Ltd                  | Personal E-mail: adam@micromuse.co.uk
London SW10 0RN                | Support E-mail : support@micromuse.co.uk
===========================================================================
Any opinions expressed above are my own and not those of MicroMuse ....
so if you don't like them ...
===========================================================================
  development and support by
dmitry ivanov