rock
 
|tablatures   |lyrics   |discussion forums   |more tabs @ XGuitar.com

Rolling Stones tabs

Wild Horses bass tab

Rolling Stones - Wild Horses
Submitted By: KennyBorders
EMail: Spankielnc@aol.com


Chorus
|----------------|----------------|----------------|----------------|
|----------------|----------------|5---5---3---3---|----------------|
|0-----0-0-----2-|3-3-----3-3-5-5-|---------------2/3-------3-3-2-2-|
|----------------|----------------|----------------|----------------|

Verse
|----------------|----------------|----------------|----------------|
|----------------|----------------|----------------|--------5--7--5-|
|2------------0--|--------------0-|2---------------|5---7-----------|
|----------------|3-----------3---|----------------|----------------|

|----------------|----------------|----------------|----------------|
|-7h9--5/7---7-7-|----------------|-5-5------------|----------------|
|----------------|2--3-3------5-5-|----------------|-3/5----------3-|
|----------------|----------------|----------------|----------------|

Bridge
|----------------|---4-5----------|----------------|---4-5----------|
|-0-2-3----------|-5--------------|-0-2-3----------|-5--------------|
|----------------|----------------|----------------|----------------|
|----------------|----------------|----------------|----------------|

|-5-5------------|----------------|
|------0-0---5-5-|-5-7-9-7-5---5--|
|----------------|-----------7----|
|----------------|----------------|
  development and support by
dmitry ivanov