rock
 
|tablatures   |lyrics   |discussion forums   |more tabs @ XGuitar.com

Rolling Stones tabs

Under My Thumb bass tab

Rolling Stones - Under My Thumb
Submitted By: KennyBorders
EMail: Spankielnc@aol.com


|               |               |               |
|----------------------------------------------------------------|
|------------2-------0-----------------2---------------2---------|
|----------------------------2-----------------------------------|
|----------------------------------------------------------------|

 |               |               |               |
|----------------------------------------------------------------|
|------------------0-----------------------0-----------------0---|
|--------------------------3-------0-----------------------------|
|----------------------------------------------------------------|

 |               |               |               |
|----------------------------------------------------------------|
|----------------------------------------------------------------|
|----------------------3-------1-------------------3-------------|
|----------------------------------------3-----------------------|

 |               |               |               |
|----------------------------------------------------------------|
|----------------------------------------------------------------|
|--3-------------------------3-------1-----------------3---------|
|----------------------------------------------3-----------------|

 |               |               |               |
|----------------------------------------------------------------|
|----------------------------------2-------0-----------------2---|
|--------3-----------------------------------------2-------------|
|----------------------------------------------------------------|

 |               |               |               |
|----------------------------------------------------------------|
|------------2---------------------------0-----------------------|
|--------------------------------------------------3-----0-------|
|----------------------------------------------------------------|

 |               |               |               |
|----------------------------------------------------------------|
|--0-----------------0-------------------------------------------|
|----------------------------------------------3-------1---------|
|--------------------------------------------------------------3-|

 |               |               |               |
|----------------------------------------------------------------|
|----------------------------------------------------------------|
|--------3-----------------3-------------------------3-------1---|
|----------------------------------------------------------------|

 |               |               |               |
|----------------------------------------------------------------|
|----------------------------------------------------------2-----|
|--------------3-----------------3-------------------------------|
|----3-----------------------------------------------------------|

 |               |               |               |
|----------------------------------------------------------------|
|--0-----------------2---------------2---------------------------|
|----------2-----------------------------------------------------|
|----------------------------------------------------------------|

 |               |               |               |
|----------------------------------------------------------------|
|0-----------------------0-----------------0---------------------|
|--------3-------0-----------------------------------------------|
|----------------------------------------------------------------|

 |               |               |               |
|----------------------------------------------------------------|
|----------------------------------------------------------------|
|----3-------1-------------------3---------------3---------------|
|----------------------3-----------------------------------------|

 |               |               |               |
|----------------------------------------------------------------|
|----------------------------------------------------------------|
|----------3-------1-----------------3-----------------3---------|
|----------------------------3-----------------------------------|

 |               |               |               |
|----------------------------------------------------------------|
|----------------2-------0-----------------2---------------2-----|
|--------------------------------2-------------------------------|
|----------------------------------------------------------------|

 |               |               |               |
|----------------------------------------------------------------|
|----------------------0-------------------------0---------------|
|--------------------------------3-----0-------------------------|
|----------------------------------------------------------------|

 |               |               |               |
|----------------------------------------------------------------|
|--0-------------------------------------------------------------|
|----------------------------3-------1-----------------3---------|
|--------------------------------------------3-------------------|

 |               |               |               |
|----------------------------------------------------------------|
|----------------------------------------------------------------|
|--------3-------------------------3-------1-----------------3---|
|--------------------------------------------------3-------------|

 |               |               |               |
|----------------------------------------------------------------|
|----------------------------------------------------------------|
|--------------3-------------------------------------------------|
|----------------------------------------3-----------------------|

 |               |               |               |
|----------------------------------------------------------------|
|----------------------------------------------------------------|
|----------------------------------------------------------------|
|--3-----------------------------------------3-------------------|

 |               |               |               |
|----------------------------------------------------------------|
|----------------------------------------------------------------|
|--------------------------------------------------3-------------|
|------3-----------------------------------3---------------------|

 |               |               |               |
|----------------------------------------------------------------|
|----------------------------------------------------------------|
|------------3---------------------------3---------------0-------|
|----------------------------------------------------------------|

 |               |               |               |
|----------------------------------------------------------------|
|--------------------------------------------------------------2-|
|------------------0-------------------------0-------------------|
|----------------------------------------------------------------|

 |               |               |               |
|----------------------------------------------------------------|
|------------------------2-------------------------2-------------|
|----------------------------------------------------------------|
|----------------------------------------------------------------|

 |               |               |               |
|----------------------------------------------------------------|
|----0-------------------------0---------------------------------|
|--------------------------------------3-------------------------|
|----------------------------------------------------------------|

 |               |               |               |
|----------------------------------------------------------------|
|----------------------------------------------------------------|
|3---------------------------------------------------------------|
|----------3-------------------------3---------------------------|

 |               |               |               |
|----------------------------------------------------------------|
|----------------------------------------------------------------|
|----------------------------------------------------------------|
|--------------3---------------------------3---------------------|

 |               |               |               |
|----------------------------------------------------------------|
|----------------------------------------------------------------|
|----------------------------------------------------------------|
|----------------------3-----------------------3-----------------|

 |               |               |               |
|----------------------------------------------------------------|
|----------------------------------------------------------------|
|----------------------------------------------------------------|
|--------------------------3-------------------------3-----------|

 |               |               |               |
|----------------------------------------------------------------|
|--------------------------------2-------0-------------------2---|
|------------------------------------------------2---------------|
|----------------------------------------------------------------|

 |               |               |               |
|----------------------------------------------------------------|
|------------2-------------------------0-------------------------|
|------------------------------------------------3-----0---------|
|----------------------------------------------------------------|

 |               |               |               |
|----------------------------------------------------------------|
|0-----------------0---------------------------------------------|
|--------------------------------------------3-------1-----------|
|------------------------------------------------------------3---|

 |               |               |               |
|----------------------------------------------------------------|
|----------------------------------------------------------------|
|------3-----------------3-------------------------3-------1-----|
|----------------------------------------------------------------|

 |               |               |               |
|----------------------------------------------------------------|
|--------------------------------------------------------2-------|
|------------3-----------------3---------------------------------|
|--3-------------------------------------------------------------|

 |               |               |               |
|----------------------------------------------------------------|
|0-----------------2---------------2---------------------------0-|
|--------2-------------------------------------------------------|
|----------------------------------------------------------------|

 |               |               |               |
|----------------------------------------------------------------|
|------------------------0---------------0-----------------------|
|------3-------0-------------------------------------------------|
|----------------------------------------------------------------|

 |               |               |               |
|----------------------------------------------------------------|
|----------------------------------------------------------------|
|----3-------1-----------------3---------------3-----------------|
|--------------------3-------------------------------------------|

 |               |               |               |
|----------------------------------------------------------------|
|----------------------------------------------------------------|
|----------3-------1-----------------3---------------3-----------|
|--------------------------3-------------------------------------|

 |               |               |               |
|----------------------------------------------------------------|
|----------------------------------------------------------------|
|----------------------------------------------------------------|
|--------------3-------------------------3-----------------------|

 |               |               |               |
|----------------------------------------------------------------|
|----------------------------------------------------------------|
|----------------------------------------------------------------|
|--------------------3-------------------------3-----------------|

 |               |               |               |
|----------------------------------------------------------------|
|----------------------------------------------------------------|
|--------------------------3-------------------------3-----------|
|----------------3-----------------------------------------------|

 |               |               |               |
|----------------------------------------------------------------|
|----------------------------------------------------------------|
|--------------3-----------------0-------------------------0-----|
|----------------------------------------------------------------|

 |               |               |               |
|----------------------------------------------------------------|
|------------------------------------2---------------------------|
|--------------------0-------------------------------------------|
|----------------------------------------------------------------|

 |               |               |               |
|----------------------------------------------------------------|
|2-------------------------2-----------------0-------------------|
|----------------------------------------------------------------|
|----------------------------------------------------------------|

 |               |               |               |
|----------------------------------------------------------------|
|------0---------------------------------------------------------|
|--------------3-------------------------3-----------------------|
|--------------------------------------------------3-------------|

 |               |               |               |
|----------------------------------------------------------------|
|----------------------------------------------------------------|
|----------------------------------------------------------------|
|------------3-----------------------------------------3---------|

 |               |               |               |
|----------------------------------------------------------------|
|----------------------------------------------------------------|
|----------------------------------------------------------------|
|----------------3-------------------------------------------3---|

 |               |               |               |
|----------------------------------------------------------------|
|----------------------------------------------------------------|
|----------------------------------------------------------------|
|----------------------3-----------------------------------------|

 |               |               |               |
|----------------------------------------------------------------|
|----------------------------------------------------------------|
|----------------------------------------------------------------|
|--3-------------------------3-----------------------------------|

 |               |               |               |
|----------------------------------------------------------------|
|--------2-------0-----------------2---------------2-------------|
|------------------------2---------------------------------------|
|----------------------------------------------------------------|

 |               |               |               |
|----------------------------------------------------------------|
|--------------0-------------------------0-----------------0-----|
|----------------------3-------0---------------------------------|
|----------------------------------------------------------------|

 |               |               |               |
|----------------------------------------------------------------|
|----------------------------------------------------------------|
|--------------------3-------1-----------------3-----------------|
|------------------------------------3---------------------------|

 |               |               |               |
|----------------------------------------------------------------|
|----------------------------------------------------------------|
|3-------------------------3-------1-----------------3-----------|
|------------------------------------------3---------------------|

 |               |               |               |
|----------------------------------------------------------------|
|--------------------------------2-----0-------------------2-----|
|----3-------------------------------------------2---------------|
|----------------------------------------------------------------|

 |               |               |               |
|----------------------------------------------------------------|
|----------2---------------------------0-----------------------0-|
|----------------------------------------------3-------0---------|
|----------------------------------------------------------------|

 |               |               |               |
|----------------------------------------------------------------|
|----------------0-----------------------------------------------|
|------------------------------------------3-------1-------------|
|------------------------------------------------------------3---|

 |               |               |               |
|----------------------------------------------------------------|
|----------------------------------------------------------------|
|----3-----------------3-------------------------3-------1-------|
|----------------------------------------------------------------|

 |               |               |               |
|----------------------------------------------------------------|
|----------------------------------------------------------------|
|----------3-----------------3-----------------------------------|
|--3---------------------------------------------------3---------|

 |               |               |               |
|----------------------------------------------------------------|
|----------------------------------------------------------------|
|----------------------------------------------------------------|
|----------------3-------------------------------------------3---|

 |               |               |               |
|----------------------------------------------------------------|
|----------------------------------------------------------------|
|----------------------------------------------------------------|
|----------------------3---------------------------------3-------|

 |               |               |               |
|----------------------------------------------------------------|
|----------------------------------------------------------------|
|--3-----------------------3---------------------------3---------|
|----------------------------------------------------------------|

 |               |               |               |
|----------------------------------------------------------------|
|----------------------------------------------------------------|
|------0---------------------------0-------------------------0---|
|----------------------------------------------------------------|

 |               |               |               |
|----------------------------------------------------------------|
|------------2-------------------------2-------------------------|
|----------------------------------------------------------------|
|----------------------------------------------------------------|

 |               |               |               |
|----------------------------------------------------------------|
|--2---------------0-------------------------0-------------------|
|------------------------------------------------------3---------|
|----------------------------------------------------------------|

 |               |               |               |
|----------------------------------------------------------------|
|----------------------------------------------------------------|
|----------------3-----------------------------------------------|
|------------------------3-------------------------3-------------|

 |               |               |               |
|----------------------------------------------------------------|
|----------------------------------------------------------------|
|----------------------------------------------------------------|
|------------------------------3-------------------------3-------|

 |               |               |               |
|----------------------------------------------------------------|
|----------------------------------------------------------------|
|----------------------------------------------------------------|
|------------------------------------3-------------------------3-|

 |               |               |               |
|----------------------------------------------------------------|
|----------------------------------------------------------------|
|----------------------------------------------------------------|
|------------------------------------------3---------------------|

 |               |               |               |
|----------------------------------------------------------------|
|----------------------------------------------------------------|
|----------------------------------------------------------------|
|----3-------------------------------------------3---------------|

 |               |               |               |
|----------------------------------------------------------------|
|----------------------------------------------------------------|
|----------------------------------------------------------------|
|----------3-----------------------------------------3-----------|

 |               |               |               |
|----------------------------------------------------------------|
|----------------------------------------------------------------|
|----------------------------------------------------------------|
|----------------3-------------------------------------------3---|

 |               |               |               |
|----------------------------------------------------------------|
|----------------------------------------------------------------|
|----------------------------------------------------------------|
|--------------------3-------------------------------------------|

 |               |               |               |
|----------------------------------------------------------------|
|----------------------------------------------------------------|
|----------------------------------------------------------------|
|--3-------------------------------------------------------------|
  development and support by
dmitry ivanov