rock
 
|tablatures   |lyrics   |discussion forums   |more tabs @ XGuitar.com

Rolling Stones tabs

Time Is On My Side bass tab

Rolling Stones - Time Is On My Side
Submitted By: KennyBorders
EMail: Spankielnc@aol.com


|--------------------------------|--------------------------------|
|--------------------------------|--------------------------------|
|--------------------------------|0---------------2-------2-------|
|0---------------0-------0-------|--------------------------------|

|--------------------------------|--------------------------------|
|--------------------------------|--------------------------------|
|--------------------------------|0---------------2---------------|
|0---------------0-------0-------|--------------------------------|

|--------------------------------|--------------------------------|
|--------------------------------|----------------4-------4-------|
|----------------2---------------|4-------------------------------|
|--------------------------------|--------------------------------|

|--------------------------------|--------------------------------|
|--------------------------------|--------------------------------|
|2-------2-------0-------0-------|2-------2-------0-------0-------|
|--------------------------------|--------------------------------|

|--------------------------------|--------------------------------|
|--------------------------------|--------------------------------|
|2-------2-------0-------0-------|2-------2---------------2-------|
|--------------------------------|--------------------------------|

|--------------------------------|--------------------------------|
|2-------------------------------|--------------------------------|
|----------------2---------------|0-----------0---2-------2-------|
|------------------------0-------|--------------------------------|

|--------------------------------|--------------------------------|
|--------------------------------|--------------------------------|
|--------------------------------|0---------------2---------------|
|0---------------0-----0-----4---|--------------------------------|

|--------------------------------|--------------------------------|
|--------------------------------|----------------4-------4-------|
|----------------2---------------|4-------4-----------------------|
|--------------------------------|--------------------------------|

|--------------------------------|--------------------------------|
|--------------------------------|--------------------------------|
|2-------2-------0---------------|2-------2-------0-------0-------|
|--------------------------------|--------------------------------|

|--------------------------------|--------------------------------|
|--------------------------------|--------------------------------|
|2-------2-------0-------0-------|--------2-------2-------2-------|
|--------------------------------|--------------------------------|

|--------------------------------|--------------------------------|
|--------------------------------|--------------------------------|
|0---------------0---------------|--------------------------------|
|--------------------------------|----------------0---------------|

|--------------------------------|--------------------------------|
|--------------------------------|--------------------------------|
|0-------0-------0-------0-------|--------------------------------|
|--------------------------------|0---------------0-------0-------|

|--------------------------------|--------------------------------|
|--------------------------------|--------------------------------|
|0-------0-------0---------------|----------------4-------4-------|
|--------------------------------|--------------------------------|

|--------------------------------|--------------------------------|
|4-------------------------------|--------------------------------|
|------------4-------------------|2---------------2-------2-------|
|----------------2-------2-------|--------------------------------|

|--------------------------------|--------------------------------|
|--------------------------------|--------------------------------|
|--------------------------------|0-----------------------2-------|
|0---------------0-------0-------|--------------------------------|

|--------------------------------|--------------------------------|
|--------------------------------|--------------------------------|
|--------------------------------|0---------------2---------------|
|----------------0-------0-------|--------------------------------|

|--------------------------------|--------------------------------|
|--------------------------------|----------------4-------4-------|
|4---------------2---------------|4-------------------------------|
|--------------------------------|--------------------------------|

|--------------------------------|--------------------------------|
|--------------------------------|--------------------------------|
|2-------2-------0-------0-------|2-------2-------0-------0-------|
|--------------------------------|--------------------------------|

|--------------------------------|--------------------------------|
|--------------------------------|--------------------------------|
|2-----------------------0-------|2---------------2-------2-------|
|--------------------------------|--------------------------------|

|--------------------------------|--------------------------------|
|--------------------------------|--------------------------------|
|--------------------------------|0---------------2-------2-------|
|0---------------0-------0-------|--------------------------------|

|--------------------------------|--------------------------------|
|--------------------------------|--------------------------------|
|--------------------------------|0---------------2-------2-------|
|0---------------0-----0---------|--------------------------------|

|--------------------------------|--------------------------------|
|--------------------------------|--------------------------------|
|--------------------------------|0---------------2---------------|
|0---------------0---------------|--------------------------------|

|--------------------------------|--------------------------------|
|--------------------------------|--------------------------------|
|--------------------------------|0---------------2-------2-------|
|0---------------0-------0-------|--------------------------------|

|--------------------------------|--------------------------------|
|--------------------------------|--------------------------------|
|--------------------------------|--------------------------------|
|0-------------------------------|--------------------------------|
  development and support by
dmitry ivanov