rock
 
|tablatures   |lyrics   |discussion forums   |more tabs @ XGuitar.com

Rolling Stones tabs

Sway bass tab

Artist: Rolling Stones
Song: Sway
Album: Sticky Fingers
Tuning: E,A,D,G ( Standard )
This is pretty much dead on a few parts may be off but, just listen to the song to get the rythyms down.  Its not very hard at all.

Intro:

G------------------------------------------
D------------------------------------------
A--5--8--5--3-33--1-1-111------------------
E------------------------------------------

Verse:

G-------------------------------------------
D-------------------------------------------
A-----------3-3-33--1--1-111111------------- x3
E--1--1-11----------------------------------

Chorus:

G--------------------------------------------
D--------------------------------------------
A--3-3-33-3-3333--1-1-11-1-1111-------------- x2
E--------------------------------------------

Verse 2:

G--------------------------------------------
D--3-3/--781010-10P8-8-88-88888--------------
A-------------------------------------------- x3
E--------------------------------------------

Chorus:

G--------------------------------------------
D--------------------------------------------
A--3-3-33-3-3333--1-1-11-1-1111-------------- x2
E--------------------------------------------


G------------------------------------------
D------------------------------------------
A--5--8--5--3-33--1-1-111------------------ x2
E------------------------------------------

Guitar Solo 1:

G--------------------------------------------
D--------------------------------------------
A--3-3-33-3-3333--1-1-11-1-1111-------------- X4
E--------------------------------------------

G------------------------------------------
D------------------------------------------
A--5--8--5--3-33--1-1-111------------------
E------------------------------------------

Verse 3:

G--------------------------------------------
D--3-3/--781010-10P8-8-88-88888--------------
A-------------------------------------------- x3
E--------------------------------------------


Chorus & Guitar Solo 2:


G--------------------------------------------
D--------------------------------------------
A--3-3-33-3-3333--1-1-11-1-1111-------------- just take that to the end
E--------------------------------------------

( Fade Out )
  development and support by
dmitry ivanov