rock
 
|tablatures   |lyrics   |discussion forums   |more tabs @ XGuitar.com

Rolling Stones tabs

Out Of Time bass tab

Rolling Stones - Out Of Time
Submitted By: KennyBorders
EMail: Spankielnc@aol.com


|----------------|----------------|----------------|----------------|
|2-----2-2-------|2-----2-2-------|1-----1-1-------|1-----1-1-------|
|----------------|----------------|----------------|------------2---|
|----------------|----------------|----------------|----------------|

|----------------|----------------|----------------|----------------|
|----------------|----------------|----------------|--------------1-|
|0-----0-0-------|0-----0-0---1---|2-----2-2-------|2-----2-2---4---|
|----------------|----------------|----------------|----------------|

|----------------|----------------|----------------|----------------|
|2-----2-2-------|2-----2-2-------|1-----1-1-------|1-----1-1-------|
|----------------|----------------|----------------|------------2---|
|----------------|----------------|----------------|----------------|

|----------------|----------------|----------------|----------------|
|----------------|----------------|2-----2-2-------|2-----2-------1-|
|0-----0-0-------|0-----0-0---1---|----------------|--------2-2-4---|
|----------------|----------------|----------------|----------------|

|----------------|----------------|----------------|----------------|
|2-----2-4-2-----|----------------|------------1---|2-----2-4-2-----|
|------------4-2-|0-----0-0---0-1-|2-----2-2-4---2-|------------4-2-|
|----------------|----------4-----|----------------|----------------|

|----------------|----------------|----------------|----------------|
|----------------|------------1---|2-----2-2-2-----|------------1-1-|
|0-----0-0---0-1-|2-----2-2-4---2-|------------4-2-|----2-2-4-4-----|
|----------4-----|----------------|----------------|0---------------|

|----------------|----------------|----------------|----------------|
|2-----2-2-2-----|2-----2-2-2-----|------------1-4-|------------1-4-|
|------------4-2-|------------4-2-|2-----2-2-2-----|2-----2-2-2-----|
|----------------|----------------|----------------|----------------|

|----------------|----------------|----------------|----------------|
|----------------|----------------|--------------2-|----------------|
|4-----4-4-4-4---|4-----4-4-4-4---|0-----0-0-0-4---|0-----0-0-0-2-0-|
|--------------4-|--------------4-|----------------|----------------|

|----------------|----------------|----------------|----------------|
|2-----2-2-2-----|2-----2-2-2-----|--------------2-|----------------|
|------------4-2-|------------4-2-|0-----0-0-0-4---|0-----0-0-0-2-0-|
|----------------|----------------|----------------|----------------|

|----------------|----------------|----------------|----------------|
|2-----2-2-2-----|------------1-4-|2-----2-2-2-----|2-----------1-1-|
|------------4-2-|2-----2-2-2-----|------------4-2-|----2-2-4-4-----|
|----------------|----------------|----------------|----------------|

|----------------|----------------|----------------|----------------|
|2-----2-2-------|2-----2-2-------|1-----1-1-------|1-----1-1-------|
|----------------|----------------|----------------|------------2---|
|----------------|----------------|----------------|----------------|

|----------------|----------------|----------------|----------------|
|----------------|----------------|2-----2-2-------|2-----2-------1-|
|0-----0-0-------|0-----0-0---1---|----------------|--------2-2-4---|
|----------------|----------------|----------------|----------------|

|----------------|----------------|----------------|----------------|
|2-----2-4-2-----|----------------|------------1---|2-----2-4-2-----|
|------------4-2-|0-----0-0---0-1-|2-----2-2-4---2-|------------4-2-|
|----------------|----------4-----|----------------|----------------|

|----------------|----------------|----------------|----------------|
|----------------|------------1---|2-----2-2-2-----|------------1-1-|
|0-----0-0---0-1-|2-----2-2-4---2-|------------4-2-|----2-2-4-4-----|
|----------4-----|----------------|----------------|0---------------|

|----------------|----------------|----------------|----------------|
|2-----2-2-2-----|2-----2-2-2-----|------------1-4-|------------1-4-|
|------------4-2-|------------4-2-|2-----2-2-2-----|2-----2-2-2-----|
|----------------|----------------|----------------|----------------|

|----------------|----------------|----------------|----------------|
|----------------|----------------|--------------2-|----------------|
|4-----4-4-4-4---|4-----4-4-4-4---|0-----0-0-0-4---|0-----0-0-0-2-0-|
|--------------4-|--------------4-|----------------|----------------|

|----------------|----------------|----------------|----------------|
|2-----2-2-2-----|2-----2-2-2-----|--------------2-|----------------|
|------------4-2-|------------4-2-|0-----0-0-0-4---|0-----0-0-0-2-0-|
|----------------|----------------|----------------|----------------|

|----------------|----------------|----------------|----------------|
|2-----2-2-2-----|------------1-4-|2-----2-2-2-----|2-----------1-1-|
|------------4-2-|2-----2-2-2-----|------------4-2-|----2-2-4-4-----|
|----------------|----------------|----------------|----------------|

|----------------|----------------|----------------|----------------|
|2-----2-2-------|2---------------|1-----1-1-------|1---------------|
|----------------|----------------|----------------|----------------|
|----------------|----------------|----------------|----------------|

|----------------|----------------|----------------|----------------|
|----------------|----------------|----------------|--------------1-|
|0---------------|0-----0-0---1---|2-----2-2-------|2-------2---4---|
|----------------|----------------|----------------|----------------|

|----------------|----------------|----------------|----------------|
|2-----2-2-2-----|2-----2-2-2-----|------------1-4-|------------1-4-|
|------------4-2-|------------4-2-|2-----2-2-2-----|2-----2-2-2-----|
|----------------|----------------|----------------|----------------|

|----------------|----------------|----------------|----------------|
|----------------|----------------|--------------2-|----------------|
|4-----4-4-4-4---|4-----4-4-4-4---|0-----0-0-0-4---|0-----0-0-0-2-0-|
|--------------4-|--------------4-|----------------|----------------|

|----------------|----------------|----------------|----------------|
|2-----2-2-2-----|2-----2-2-2-----|--------------2-|----------------|
|------------4-2-|------------4-2-|0-----0-0-0-4---|0-----0-0-0-2-0-|
|----------------|----------------|----------------|----------------|

|----------------|----------------|----------------|----------------|
|2-----2-2-2-----|------------1-4-|2-----2-2-2-----|2-----------1-1-|
|------------4-2-|2-----2-2-2-----|------------4-2-|----2-2-4-4-----|
|----------------|----------------|----------------|----------------|

|----------------|----------------|----------------|----------------|
|2-----2-2-------|2---------------|1-----1-1-------|1---------------|
|----------------|----------------|----------------|----------------|
|----------------|----------------|----------------|----------------|

|----------------|----------------|----------------|----------------|
|----------------|----------------|----------------|--------------1-|
|0---------------|0-----0-0---1---|2-----2-2-------|2-------2---4---|
|----------------|----------------|----------------|----------------|

|----------------|
|2---------------|
|----------------|
|----------------|
  development and support by
dmitry ivanov