rock
 
|tablatures   |lyrics   |discussion forums   |more tabs @ XGuitar.com

Rolling Stones tabs

Monkey Man bass tab

-------------------------------------------------------------------------------
			   MONKEY MAN - Rolling Stones
-------------------------------------------------------------------------------

Tabbed By : ramon is cool!
e-mail: n/a

Tuning:standard

   intro
G|----7-7-7----------7-7-7---------|
D|0----0-0-0-----00-0-0-0----------|
A|---------------------------------|
E|---------------------------------|

G|---7-7-77------|
D|00-0-0--0------|   this part repeats six times
A|---------------|
E|---------------|

 *G|--------------------------------------------------------------------------------|
 *D|--------------------------------------------------------------------------------|
 *A|5-5-5-555-55--3-3-3-333-33--2-2-2-222-22--1-1-1-111-11--------------------------|
 *E|--------------------------------------------------------------------------------|

   rest of song
G|-----------------|
D|-----------------|
A|5-5-555-55-------|
E|-----------------|

   verse
G|---------------------------------------------------------------------|
D|5-5-555-55--5-5-555-55-----------------------------------------------|
A|-----------------------------------5-5-555-55--5-5-555-55------------|
E|---------------------------------------------------------------------|

G|---------------------------------------------------------------------|
D|---------------------------------------------------------------------|
A|-----------------------------------5-5-555-55--5-5-555-55------------|
E|5-5-555-55--5-5-555-55-----------------------------------------------|

   rest of song
G|-----------------|
D|-----------------|
A|5-5-555-55-------|
E|-----------------|
   just feel free to improvise durring the last half of the song with the specified bass
(*)only using higher octaves, thats how  Bill Wyman does it.
  development and support by
dmitry ivanov