rock
 
|tablatures   |lyrics   |discussion forums   |more tabs @ XGuitar.com

Rolling Stones tabs

Miss You guitar tab

Rolling stones - Miss You
Tabbed By: shortman
Email: shortstuff801_580@hotmail.com

Tuning: Standard (E A D G B E)





E|--------11--9-----------------------11--9----------------------------------||
B|-9--11---------11--9--11-----9--11---------11--9--11-----------------------||
G|---------------------------------------------------------------------------||
D|---------------------------------------------------------------------------||
A|---------------------------------------------------------------------------||
E|---------------------------------------------------------------------------||


E|--------9-----------------------------------------------||
B|-9--11-----11-------------------------------------------||
G|--------------------------------------------------------||
D|--------------------------------------------------------||
A|--------------------------------------------------------||
E|--------------------------------------------------------||


Thats all I know any problems email me at Shortstuff801_580@hotmail.com
THANKS!!!
  development and support by
dmitry ivanov