rock
 
|tablatures   |lyrics   |discussion forums   |more tabs @ XGuitar.com

Rolling Stones tabs

Love Is Strong bass tab

Rolling Stones - Love Is Strong
Submitted By: KennyBorders
EMail: Spankielnc@aol.com


G|------|-----------|----------|----------|-------(3x)|
D|------|*----------|----------|----------|----------*|
A|------|*----------|-3333333--|----------|----------*|
E|----1-|--35555555-|--------1-|-33333331-|-35555531--|

G|-----------|----------|----------|-----------|
D|*----------|----------|----------|----------*|
A|*----------|-3333333--|----------|-------53-*|
E|--35555555-|--------1-|-33333331-|-355555----|

G|-----------|----------|----------|-----------|
D|*----------|----------|----------|----------*|
A|*----------|-3333333--|----------|----------*|
E|--35555555-|--------1-|-33333331-|-35555531--|

G|----------|----------|----------|----------|
D|----------|----------|----------|----------|
A|----------|-3333333--|----------|-------53-|
E|-35555555-|--------1-|-33333331-|-355555---|

G|----------|----------|----------|----------|----------|----------|
D|----------|-----335--|----------|----3335--|----------|-----335--|
A|-55-55-55-|--555---3-|-55-55-55-|--55----3-|-55-55-55-|--555---3-|
E|----------|----------|----------|----------|----------|----------|

G|----------|-------|--------|
D|----------|*------|-------*|
A|-55-3-----|*------|-------*|
E|------5---|-----1-|-35-----|

G|------|----------|----------|----------|----------|
D|------|----------|----------|----------|----------|
A|------|----------|-3333333--|----------|----------|
E|----1-|-35555555-|--------1-|-33333331-|-35555531-|

G|----------|----------|----------|------------|
D|----------|----------|----------|------------|
A|----------|-3333333--|----------|-----3/753--|
E|-35555555-|--------1-|-33333331-|-3555-----1-|

G|-----------|----------|----------|-----------|
D|*----------|----------|----------|----------*|
A|*----------|-3333333--|----------|----------*|
E|--35555555-|--------1-|-33333331-|-35555531--|

G|-----------|-----------|----------|------------|
D|*----------|-----335--*|----------|------------|
A|*-55-55-55-|--555---3-*|-55-55-55-|--553-------|
E|-----------|-----------|----------|------51133-|

G|----------|---2---|----------|------|-------|
D|----------|-------|----------|------|-------|
A|-55-3-----|-------|----------|------|-------|
E|------5---|-------|-35555555-|-5----|-35----|

G|------|-----------|----------|----------|-------(4x)|
D|------|*----------|----------|----------|----------*|
A|------|*----------|-3333333--|----------|----------*|
E|----1-|--35555555-|--------1-|-33333331-|-35555531--|

G|----------|----------|----------|------2-2-|
D|----------|----------|----------|-----5-5--|
A|----------|-3333333--|----------|----------|
E|-35555555-|--------1-|-33333331-|-3555-----|

G|------------|----------|----------|----------|
D|-------53---|----------|----------|----------|
A|---------53-|-3333333--|----------|----------|
E|-355555-----|--------1-|-33333331-|-35555531-|

G|----------|----------|----------|----------|
D|----------|----------|----------|----------|
A|--------2-|-3333333--|----------|----------|
E|-3555555--|--------1-|-33333331-|-35555531-|

G|-----------|----------|----------|----------|
D|-----------|----------|----------|----------|
A|-------53--|-3333333--|----------|----------|
E|-355555--5-|--------1-|-33333331-|-35555531-|
  development and support by
dmitry ivanov