rock
 
|tablatures   |lyrics   |discussion forums   |more tabs @ XGuitar.com

Rolling Stones tabs

Like A Rolling Stone bass tab

Like A Rolling Stone - The Rolling Stones

Here is the Bass tab.

If you have any comments, please mail me at: Christian.Hinault@andra.fr


Verse :
X2                       X2              X2

||-------------------||--||----------||--||----------------||----------||
||*-----------------*||--||*--------*||--||*--------------*||---------*||
||*--3--5-----------*||--||*--------*||--||*--------5--3--*||--5\-----*||
||---------0--1--3---||--||---1--3---||--||---1--0---------||----1--3--||



Chorus :

||-----------------------||
||*---------------------*||
||*---3--3--------------*||
||----------1--1--1--3---||


Have fun !
        Chris.

  development and support by
dmitry ivanov