rock
 
|tablatures   |lyrics   |discussion forums   |more tabs @ XGuitar.com

Rolling Stones tabs

Let It Loose guitar tab

Let It Loose - Rolling Stones
tab by robert foglia
standard tuning
Capo at 3rd
Let ring as much as possible
Riff 1
h ^
-------0------------------|--------------------------|--------------------------
----------3---------------|-0--------0---------------|-------2-----------2------
----2--------------0--0-2-|-0--------------------0---|----------2---------------
-0--------------4---------|-------0-----------0------|----2-----------2-----2---
-------------3------------|----------------0---------|-0------------------------
--------------------------|----3--------2------------|-------------3------------
Riff 2a
h ^ h h h
-------0------------------|-------------------------|----------------------------
----------3---------------|-0--------0--------------|-------0--------------------
----2--------------0--0-2-|-0--------------------0--|-0--------0---------0---0---
-0--------------4---------|-------0-----------0-----|----2-----------0---0-2-0-2-
-------------3------------|----------------0--------|----------------0-2---------
--------------------------|----3--------2-----------|-------------3--------------
Riff 2b
h ^ h h h h h
-------0------------------|-------------------------|-----3---3---3--------------
----------3---------------|-0--------0--------------|-----3-5-3-5-3--------------
----2--------------0--0-2-|-0--------------------0--|--------------------0---0---
-0--------------4---------|-------0-----------0-----|----------------0---0-2-0-2-
-------------3------------|----------------0--------|----------------0-2---------
--------------------------|----3--------2-----------|-0--------------3-----------
Riff 1b
|-----------------------------------repeat .... ----|
h ^
-------0------------------|--------------------------|-------5-----------3------
----------3---------------|-0--------0---------------|----------2---------------
----2--------------0--0-2-|-0--------------------0---|----------------------2---
-0--------------4---------|-------0-----------0------|----2-----------2---------
-------------3------------|----------------0---------|-0------------------------
--------------------------|----3--------2------------|-------------3------------
Mix and repeat and add variations...
ending riff:
h h p
-5---5-----3---3-----0--0-----------------------------------
-5-7-5-----3-5-3-----0--0--0--------------------------------
--------------------/4-\2--0--0---0-------------------------
---------------------------4--2-0-2-------------------------
----------------------------------2-------------------------
------------------------------------------------------------
\: slide down
/: slide up
p: pull-off
h: hammer-on
^: upstroke
  development and support by
dmitry ivanov