rock
 
|tablatures   |lyrics   |discussion forums   |more tabs @ XGuitar.com

Rolling Stones tabs

Dead Flowers bass tab

Dead Flowers - Rolling Stones

Bass Tab

Very nice in accoustic.... ;)

     Verse
||--------------------------------------------------------||--------------------
||*------------------------------------------------------*||--------------------
||*---5-----5--5-----------------------------5-----5--5--*||--------------------
||----------------5-----5--5-----3-----3--3---------------||--------------------


     Chorus
||------------------------------------------------------------------------------
||*-----------------------------------------------------------------------------
||*---------5-----------5-----------5-----------5-----------5-----5-------------
||----5-----------5-----------3-----------3-----------3-----------------5-------



----------||--------------------------------------------------------------------
---------*||--------------------------------------------------------------------
------5--*||--------------------------------------------------------------------
3---------||--------------------------------------------------------------------


Have Fun
        Chris.

  development and support by
dmitry ivanov