rock
 
|tablatures   |lyrics   |discussion forums   |more tabs @ XGuitar.com

Rolling Stones tabs

Blinded By Rainbows bass tab

Rolling Stones - Blinded By Rainbows
Submitted By: KennyBorders
EMail: Spankielnc@aol.com


Intro/1st verse
G:-------|------------------------------------------------------|
D:-------|------------------------------------------------------|
A:-------|------------------------7-5-3-7-10-3-5-6-7-0-3-4-5---0|
E:-------|------------------------------------------------------|

G:---------------------------------------------------------------------|
D:-------0000000---------------000000---------------000000-------------|
A:---------------333333---------------333333---------------333333----3~|
E:333333----------------333333---------------333333---------------0~---|

2nd verse
G:----------------------------------------------------------|
D:----------------------------------------------------------|
A:-----------------------7-5-3-7-7-9-10--2-3-5-6-7---------5|
E:-------------------------------------------------0-3-4-5--|

2nd chorus
G:--------------------------------------------------------------------|
D:-------000000---------------000000---------------000000-------------|
A:--------------333333---------------333333---------------333333----3~|
E:333333---------------333333---------------333333---------------0~---|

Solo/3rd verse
G:---------------------------|--------------------------------------------|
D:--------------000000-------|------------------------------------------0~|
A:-------333333--------333333|-------333333--------333333--------333333---|
E:333333---------------------|000000--------000000--------000000----------|

3rd chorus
G:---------------------------------------------------------------------------|
D:-------000000---------------000000---------------000000--------------------|
A:--------------333333---------------333333---------------333333--------33333|
E:333333---------------333333---------------333333---------------000000------|
  development and support by
dmitry ivanov