rock
 
|tablatures   |lyrics   |discussion forums   |more tabs @ XGuitar.com

Robbie_williams tabs

They Cant Take That Away From Me bass tab

Title: They can't take that away from me
Album: Swing When You're Winning
Artist: Robbie Williams
Tabber: Dirkjan Ensing

mail: dirkjan_ensing@hotmail.com

r  = rest

G|---------1---|-0-------------|---------------|------r--------|---------------|
D|-0-----------|-------------3-|-2.-2----------|------r--------|---------------|
A|-------------|----------3----|---------------|--0---r--------|---------------|
E|-------------|---------------|------0---0----|------r--------|---------------|

G|---------2---|---------------|-------2-------|---------------|-----2.-2------|
D|-0-----------|--0------------|---------------|-2-------------|-0-------------|
A|-------------|-----2--1------|-0-------------|----1---0------|---------------|
E|-------------|---------------|---------------|---------------|---------------|

G|-------------|-0-------------|-r-------------|--------2------|---------------|
D|-0-------0---|-----4------2--|-r-------------|-0-------------|-0-------------|
A|-------------|----------2----|-r----0--------|---------------|-----2--1------|
E|-------------|---------------|-r-------------|---------------|---------------|

G|---------2---|---------------|---------2-----|------2--------|-0.-0----------|
D|-------------|-2-------------|-0-------------|-0---------0---|-------2-------|
A|-0-----------|----1----0-----|---------------|---------------|----------0----|
E|-------------|---------------|---------------|---------------|---------------|

G|----0--1-----|----0--1-----|----1_1----|----0--1----|--1------------|
D|-0.----------|-4.----------|-4.--------|-4.---------|---------------|
A|----------4--|----------4--|---------4-|------------|--------4------|
E|-------------|-------------|-----------|------------|---------------|

G|----1_1----|----------4--|-------------|------------|-----2---0-----|
D|-4.--------|-4.-4--------|-2.----------|------------|-0-------------|
A|---------4-|-------2.----|----0--1.--0___0----------|---------------|
E|-----------|-------------|-------------|------------|---------------|

G|-----------|------3------|----4--2-----|---1-2.--2--|---------------|
D|-4----3----|-2-----------|-2.-------0--|-0.---------|--0------0-----|
A|-----------|-------------|-------------|------------|---------------|
E|-----------|-------------|-------------|------------|---------------|

G|-0---------|--r-0___0----|-------------|------------|-----4-2--4--2-|-0----------|
D|--------4--|--r------0---|-4.-4-----0--|-2.-2-------|-0-4-----------|----3--2--0-|
A|-----4---2-|--r----------|-------2.----|------0.-0--|---------------|------------|
E|-----------|--r----------|-------------|------------|---------------|------------|

G|-------------|-------2-----|----2--------|----1--0-----|-------5-----|
D|-------5--5--|----2--------|-0-----4--1--|-0------0----|----5-----6--|
A|-3--3--------|-3--------0--|-------------|----------2--|-3-----------|
E|-------------|-------------|-------------|-------------|-------------|

G|-------------|-------------|-------1--1--|-----0-1--1--|-------3-----|
D|-5--5--------|-3--0--2-----|-0--1--------|-------------|----3-----0--|
A|-------3--3--|----------0--|-------------|-4--4--------|-4-----------|
E|-------------|-------------|-------------|-------------|-------------|

G|-------3-----|----2--1--1--|----6--------|-------------|-------1--1--|
D|-1--1-----2--|-1-----------|-------------|----------3--|-4--1--------|
A|-------------|-------------|-4-----4--0--|----3--4-----|-------------|
E|-------------|-------------|-------------|-4-----------|-------------|

G|----1--0-----|-------0-----|-------0--5--|-------0--0--|----0--------|
D|-------------|-3-----------|-3--0--------|-3--3--------|-0-----2-----|
A|-4--------3--|----3-----3--|-------------|-------------|----------3--|
E|-------------|-------------|-------------|-------------|-------------|

G|-------0-----|-------------|----1--1-1-r-2___2---------|-------2-----|
D|-3--------2--|-3-------0---|-1---------r-|-------------|-0-----------|
A|----3--------|---0--1------|-----------r-|------0------|-------------|
E|-------------|-------------|-----------r-|-------------|-------------|

G|-------------|------2------|-------------|-------------|-------------|
D|-0-----------|-------------|-2-----------|-0-----------|-0-----0-----|
A|-------2--1--|--0----------|-------1--0--|------0------|-------------|
E|-------------|-------------|-------------|-------------|-------------|

G|-0-----------|-r--0--------|-----2-4-----|----4--2--0--|----2--4-2---|
D|----------4--|-r-----------|-4--4--------|-2-----------|-4------0-0--|
A|-------4---2-|-r-----------|----------2--|-------------|-------------|
E|-------------|-r-----------|-------------|-------------|-------------|

G|-1--1--0--0--|-----2342----|-------2--0--|-----2-4-2---|-1--1--0--0--|
D|-------------|-4--4----4---|-2--2--------|-4--4---0-0--|-------------|
A|-------------|-----------2-|-------------|-------------|-------------|
E|-------------|-------------|-------------|-------------|-------------|

G|-----2-------|---3-2__2----|-------1.-1--|-0.-0--------|-------------|r---r----||
D|-4--4--------|-2-----------|-0.-0--------|---------3---|-2____2-2----|r---r---0||
A|-------2--2--|----------0--|-------------|------3------|-------------|r-0-r-4--||
E|-------------|-------------|-------------|-------------|-------------|r---r----||

 
 
 

Copyright 1999-2004 Mxtabs | Contact | Advertise | FAQ  
  development and support by
dmitry ivanov