rock
 
|tablatures   |lyrics   |discussion forums   |more tabs @ XGuitar.com

Robbie_williams tabs

Somethin' Stupid bass tab

Somethin' Stuipd - Robbie Williams
Tabbed by sh4it4n


                            www.sh4it4n.de
PLZ RATE THIS TAB :)


I Hope this tab is 100% correkt ;) 
if not plz send me an email -> sh4it4n@gmx.net

G|-----------|-----------|----------|-------------|-------------|
D|-----------|-----------|----2-0---|----2-0--2-0-|---------5---|
A|-0--0-5--5-|-0--0-5--5-|--------2-|-------------|------5----5-|
E|-----------|-----------|-3--------|-3-----------|-3--3--------|

|-------------|-----------|-----------|-----------|-----------|
|---------5---|-------7---|-------7---|-------7---|-------7---|
|------5----5-|-0--0-5--5-|-0--0-5--5-|-0--0-5--5-|-0--0-5--5-|
|-3--3--------|-----------|-----------|-----------|-----------|

|-----------|-----------|-------------|----------|-----------|
|-------7---|---------5-|-------------|-5--5-----|-5--5---5--|
|-0--0-5--5-|------5----|------5--7-5-|-----5----|-----5---5-|
|-----------|-3--3------|-3--3--------|--------3-|-----------|

|-----------|------3------|------------|------------|-----------|
|------5----|-1--1----3-1-|---------5--|---------5--|-----------|
|-3--3----3-|-------------|-0--0-5-----|-0--0-5-----|------5--5-|
|-----------|-------------|------------|------------|-3--3------|

|-----------|-----------|------------|--------------|------------|
|-----------|-5--5---5--|-5--5-------|-5--5-0-------|------5-----|
|------5--5-|-----5-----|------5-----|----------0-2-|-3--3----3--|
|-3--3------|-----------|---------3--|--------3-----|------------|

|------------|------------|-------------|------9-7------|
|------5-----|---------7--|-------------|-0--0-----10-7-|
|-3--3----3--|-0--0-7-----|-0--0-7--0-4-|---------------|
|------------|------------|-------------|---------------|

|-------------|-------------|-------------|-------------|
|-0--0--5--5--|---------5---|---------5---|---------7---|
|-------------|------5----5-|------5----5-|-0--0-5----5-|
|-------------|-3--3--------|-3--3--------|-------------|

|-------------|-------------|-------------|-------------|
|---------7---|---------7---|---------7---|---------7---|
|-0--0-5----5-|-0--0-5----5-|-0--0-5----5-|-0--0-5----5-|
|-------------|-------------|-------------|-------------|

|------------|-------------|------------|-------------|
|---------5--|-------------|-5--5-------|-5--5----5---|
|------5-----|------5--7-5-|------5-----|------5----5-|
|-3--3-------|-3--3--------|---------3--|-------------|

|------------|------3------|------------|------------|
|------5-----|-1--1----3-1-|---------5--|---------5--|
|-3--3----3--|-------------|-0--0-5-----|-0--0-5-----|
|------------|-------------|------------|------------|

|-----------|------------|-------------|-------------|
|-----------|-5--5-0--5--|---------5---|---------5---|
|------5--5-|------------|------5----5-|------5----5-|
|-3--3------|------------|-3--3--------|-3--3--------|

|-------------|-------------|-------------|-------------|
|---------7---|---------7---|---------7---|---------7---|
|-0--0-5----7-|-0--0-5----7-|-0--0-5----7-|-0--0-5----7-|
|-------------|-------------|-------------|-------------|

|------------|-------------|------------|-------------|
|---------5--|---------2---|-5--5-------|-5--5----5---|
|------5-----|------5----5-|------5-----|------5----5-|
|-3--3-------|-3--3--------|---------3--|-------------|

|------------|------3------|------------|------------|
|------5-----|-1--1----3-1-|---------7--|---------7--|
|-3--3----3--|-------------|-0--0-5-----|-0--0-5-----|
|------------|-------------|------------|------------|

|-------------|--------|------------|------------|
|---------2---|-1------|------------|-1--1----1--|
|------5----5-|--------|------5-----|------1-----|
|-3--3--------|--------|-3--3----3--|------------|

|------------|------------|------------|------------|
|------------|-1--1----1--|------------|-1--1----1--|
|------5-----|------1-----|------5-----|------1-----|
|-3--3----3--|------------|-3--3----3--|------------|

|------------|------------|------------|------------|
|------------|-1--1----1--|------------|------------|
|------5-----|------1-----|------3--3--|------------|
|-3--3----3--|------------|-3--3-------|-3----------|
  development and support by
dmitry ivanov