rock
 
|tablatures   |lyrics   |discussion forums   |more tabs @ XGuitar.com

Robbie_williams tabs

Nans Song guitar chords

PROPS GO TO: Jacccccke

INTRO:
    e|-------2--------0-------3--------|
    b|-------3--------2-------3--------|
    g|-------2--------2-------0--------|
    d|--0----4--------2-------0--------|
    a|-------0---0----0---2---2--------|
    e|-------0--------0-------3--------|
            D/F#      A       G
 
    VERSES:
    e|--2-----2--------0-------0-------3---|
    b|--3-----3--------2-------3-------3---|
    g|--2-----2--------2-------0-------0---|
    d|--0-----4--------2-------2-------0---|
    a|--0-----0--------0-------2-------2---|
    e|--0-----0--------0-------0-------3---|
        D    D/F#      A      Em7      G
 
    CHORUS:
    e|-3------2--------0-------0------0--|
    b|-3------3--------1-------1------2--|
    g|-0------2--------0-------0------2--|
    d|-0------0--------2-------2------2--|
    a|-2------0--------3-------3------0--|
    e|-3------0--------0-------3------0--|
       G      D        C      C/G     A        
 
 
 
    
 
 
    MIDDLE 8:
    e|-2-----0-----0-----2-----2---|
    b|-3-----2-----0-----2-----2---|
    g|-4-----2-----0-----2-----3---|
    d|-4-----2-----2-----4-----4---|
    a|-2-----0-----2-----4-----4---|
    e|-2-----0-----0-----2-----2---|
       Bm    A     Em   F#m    F#        
  
 
 Intro
 
 


Verse 1:
 D                 D/F#            A   	              Em7                    G
 You said when you die that you'd walk with me  every day.
     D           D/F#        A                                Em7                    G
 Then I start to cry and say please don't talk that way.
       D           D/F#           A                                Em7                     G                       
With a blink of an eye the lord came and asked you to leave.
      D              D/F#           A	             Em7             G                             
 You went to a better place but it stole you away from me.
      D  D/F#   A      Em7   G
 And now she lives in heaven
          D   D/F#    A         Em7.
 But I know they let her out.

 To take care of me 
 Chorus:
 G		 D     G	        D
 There's a strange kind of light, caressing me tonight.
 G	      D 	       C     C/G	                            A
  Pray silence my fear; she is near, bringing heaven down here.
 Intro
 
 Verse 2:
 I miss your love, I miss your touch, but I'm feeling you every day.
 And I can almost hear you say ‘You've come a long way baby'.
 And now you live in heaven.
 But I know they let you out.
 To take care of me
 
 Chorus:
 There's a strange kind of light, in my bedroom tonight.
  Pray silence my fear; she is near, bringing heaven down here.
  Middle 8:
 Bm		             A         Em        F#m -F#                                        
You taught me kings and queens, whilst stroking my head.
 Bm                  A   Em         F#m - F#       
And in my darkest dark, I know you are there.
 Bm             A	Em  		F#m – F#
 Leaning down besides me, whispering my prayers.
 Chorus:
 There's a strange kind of light, caressing me tonight.
  Pray silence my fear; she is near, bringing heaven down here.
 
 G	               D       G      	         D 
 The next time that we meet, I will bow at her feet.
 G			   D	C – C/G		
 You'll say ‘Wasn't life sweet when we were there, 
                 A
 to take heaven down there!'
 
 Intro 
 
 
    e|--------2------0------3-----|
    b|--------3------2------3-----|
    g|--------2------2------0-----|
    d|--0-----4------2------0-----|
    a|--------0------0------2-----|
    e|--------0------0------3-----|
             D/F#    A      G
 
 
    e|-------2-------0------0----|
    b|-------3-------2------3----|
    g|-------2-------2------0----|
    d|--0----4-------2------2----|
    a|-------0---0---0--2---2----|
    e|-------0-------0------0----|
           D/F#      A     Em7
  development and support by
dmitry ivanov