rock
 
|tablatures   |lyrics   |discussion forums   |more tabs @ XGuitar.com

Robbie_williams tabs

Kids bass tab

Artist: Robbie Williams feat. Kylie Minogue
Song: Kids
CD: Sing When You're Winning
Taped: Peda (Peter.Rodegast@web.de)


Verse:
G------------------------------|---------7---5---7-p5---------|
D---------7---5---7-p5---------|-7-7-7-7----------------7-----|
A-7-7-7-7----------------7-----|------------------------------|
E------------------------------|------------------------------|

Chorus:
G-----------------|-----------------|
D-----------------|-----------------|
A-7-7-7-7-7-7-7-7-|-----------------|
E-----------------|-3-3-3-3-3-3-3-3-|

G-----------------|-----------------|
D-----------------|-----------------|
A-5-5-5-5-5-5-5-5-|-----------------|
E-----------------|-5-5-5-5-7-7-7-7-|


G-----------------|-----------------|
D-----------------|-----------------|
A-----------------|-----------------|
E-3-3-3-3-3-3-3-3-|-2-2-2-2-2-2-2-2-|

G-----------------|-----------------|
D-----------------|-----------------|
A-3-3-3-3-3-3-3-3-|-5-5-5-5-7-7-7-7-|
E-----------------|-----------------|

Interlude:
G------------------------------|------------------------------|
D------------------------------|-7----------------------------|
A-7----------------------------|------------------------------|
E------------------------------|------------------------------|

I'm waiting for corrections!!!
  development and support by
dmitry ivanov