rock
 
|tablatures   |lyrics   |discussion forums   |more tabs @ XGuitar.com

Robbie_williams tabs

Hot Fudge bass tab

Artist: Robbie Williams
Titel:  Hot Fudge
tabbed by:BonnBoarder


Verse	       |------------------------------------|
	       |----------4-4-4-----------------4---|
	       |--4-4-6-6-------4---4-4-6-6-2-2---4-|
	       |------------------------------------|


PreChorus	       |----------------------------|
	       |----------------------1-3-4-|
	       |--1--------------1----------|
	       |-----4--2--2-2-4---4--------|


Chorus	       |------------------------------------------------------------------|
	       |------------------------------------------------------------1-3-4-|
	       |--4-4-4-4---------6-6-6-6-----------4-4-4-4-----------------------|
	       |----------4-4-4-4---------2-2-2-2-----------4-4-4-4-2-2-0-0-------|

Intro Solo      |--------------|
L . A . ....    |--------------|
	       |2-4h------2-4h|
	       |--------------|

variation of PreChorus
	       |--------------------------------|
	       |--------------------------------|
	       |--1--------------1--------------|
	       |-----4--2--2-2-4---4--2--2-2-4--|



	
Song Order:
3xVerse
1xPre-Chorus
1xChorus
2xVerse
1xPre-Chorus
1xChorus
1xIntro Solo
2xVerse
1xvariation of Pre-Chorus
1xPre-Chorus
3xChorus
  development and support by
dmitry ivanov