rock
 
|tablatures   |lyrics   |discussion forums   |more tabs @ XGuitar.com

Robbie_williams tabs

Feel bass tab

Robbie Williams - Feel
Tabbed by: sinniecoyote

The bass start from "I just wanna feel..." (0.48)

Intro
G|---------------------------------|
D|---------------------------------|
A|---------------------------------|
E|--6---1---8-------6---1---8------|

Verse 1
G|--------------------------------------------------------------------------|
D|-----------------------------------------------------------------------7--|
A|-----5---55--3---33--4---44--------5--------------------------------7-7-7-|
E|-05\----5-------3-------4----05--05-543--033--01--011--00--000--05--------|

G|-----------------------------------------------------------------------|
D|-------------------------------------------------------------7-7-77-7\-|
A|-5---55--3---33--4---44--------5--------------------------5h7----------|
E|----5-------3-------4----05--05-543--033--1--011--05--055--------------|

Chorus 1
G|-------------------------------------------------------------------------------|
D|-------------------------------------------------------------------------------|
A|---------------------3-3-3-3---3-3-3-3-3-1-1-1-1-3-----------3-3-3-3---3-3-3-3-|
E|-6-6-6-6-8-1-1-1-1-3---------3---------------------1-1-1-1-3---------3---------|

G|----------------------------------------------------|
D|----------------------------------------------------|
A|-321-1-1-1-3---------------------10-----------------|
E|-------------1-1-1-1-1h3-8-8-8-8----8-8-8-8-9-10-\--|
Rest for a while, and then the bass comes out again at the solo guitar part.

Solo Guitar Part
G|------------------------------------------------------------------------------------------|
D|------------------------------------------------------------------------------------------|
A|-------5-5-5---------------5-5-5---------------5-5-5---------------5-5-5-7-7-8-8-8-10-10\-|
E|-5/10\-------5-5-1-1-1-3-3-------5-5-1-1-1-3-3-------5-5-1-1-1-3-3------------------------|

Chorus 2
G|-------------------------------------------------------------------------------|
D|-----------------------------5-------------------------------------------------|
A|-1-1-1-1-3---------123-3-3-3---3-3-3-3-321-1-1-1-3-----------3-3-3-3---3-3-3-3-|
E|-----------1-1-1-1---------------------------------1-1-1-1-3---------3---------|

G|------------------------------------------------------------------------------------------|
D|-------------------------------55--------------------------------------5------------------|
A|-3-1-1-1-1-3-----------3-3-3-3---3-3-3-3-3-1-1-1-1-3-----------3-3-3-3--------------------|
E|-------------1-1-1-1-3-------------------------------1-1-1-1-3-----------8-8-8-8-99-10-\--|
Rest again and come back at"come on hold my hand..."

Outro
G|------------------------------------------------------------------------------------------|
D|------------------------------------------------------------------------------------------|
A|-------5-5-5---------------5-5-5---------------5-5-5---------------5-5-5-7-7-8-8-8-10-10\-|
E|-5/10\-------5-5-1-1-1-3-3-------5-5-1-1-1-3-3-------5-5-1-1-1-3-3------------------------|

G|----------------------------------------------------------------------------------------|
D|----------------------------------------------------------------------------------------|
A|-5-5-5---------------5-5-5---------------5-5-5---------------5-5-5-7-7-8-8-8-10-10------|
E|-------5-5-1-1-1-3-3-------5-5-1-1-1-3-3-------5-5-1-1-1-3-3-----------------------10---|
  development and support by
dmitry ivanov