rock
 
|tablatures   |lyrics   |discussion forums   |more tabs @ XGuitar.com

Robbie_williams tabs

Eternity guitar chords

Intro:

F#   Ab    Bb


or

    F#    Ab    Bb
E|--6--4--1-----1--------------------------------6-----|
b|-----------4--------1--3--4--1--3-----------3-----3--|
g|-----------------3-----------------3-----3-----------|
d|--------------------------------------3--------------|
a|-----------------------------------------------------|
e|-----------------------------------------------------|

Note: If you have two guitars, why don't you try both of them


VERSE 1:

Bb                              Gm
   Close your eyes so you don't feel them
Eb                            F
   They don't need to see you   cry 
Bb                        Gm
   I can't promise I will heal you
Eb                           Dm
   But if you want to I will try

PRE-CHORUS 1: 

* (for pre-chorus, refer below)

      Cm                  Cm Maj 7/B
   To sing this summer se      -     renade
       Cm7/Bb
   The past   is done
         Gm/Bb
   We've been betrayed
Gm              **
   It's true
   Cm                       Cm Maj 7/B
   Some might say the truth            will out
       Cm7/Bb             Eb             F
   But I      believe without a doubt in you

CHORUS:

            Bb               F
   You were there for summer dreaming
           Gm             Eb
   And you gave me what I need
         Bb                 F
   And I hope you find your freedom
             *** (refer below)
   For eternity
   
   For eternity


Bb   F#   Ab   Bb


or

  Bb                 F# Ab Bb
E|--------------1----6--4--1--------------------------------6-----|
b|-----1--3--4-------------------1--3--4--1--3-----------3-----3--|
g|--3-------------------------3-----------------3-----3-----------|
d|-------------------------------------------------3--------------|
a|----------------------------------------------------------------|
e|----------------------------------------------------------------|

VERSE 2:

Bb                        Gm
   Yesterday when we were walking
Eb                               F  
   You talked about your mum and    dad
Bb                             Gm
   What they did that made you happy
Eb                             Dm
   What they did that made you sad

PRE-CHORUS 2: * (refer below)

      Cm                     Cm Maj 7/B
   We sat and watched the sun           go down
        Cm7/Bb          Gm/Bb        Gm              **
   Then picked a star before we lost    the moon
   Cm                Cm Maj 7/B
   Youth is wasted on          the young
     Gm                 Eb                F
   Before you know it's come and gone too soon

CHORUS:

            Bb               F
   You were there for summer dreaming
           Gm             Eb
   And you gave me what I need
         Bb                 A
   And I hope you find your freedom
             *** (refer below)
   For eternity

   For eternity

    F#    Ab    Bb                       F#    Ab    Bb
E|--6--4--1------------------------------6--4--1-----1--|
b|-----------4--3---------------------------------4-----|
g|------------------------------------------------------|
d|------------------------------------------------------|
a|------------------------------------------------------|
e|------------------------------------------------------|
                       For eternity...          




REPEAT PRE-CHORUS 1

CHORUS:

            Bb               F
   You were there for summer dreaming
           Gm             Eb
   And you are a friend indeed
         Bb                 F
   And I hope you find your freedom
             ~
   For eternity
            Bb               F
   You were there for summer dreaming
           Gm             Eb
   And you gave me what I need
         Bb                    F
   And I know you'll find your freedom
           ***
   Eventually

   For eternity


    F#    Ab    Bb                       F#    Ab    Bb
E|--6--4--1------------------------------6--4--1-----1--|
b|-----------4--3---------------------------------4-----|
g|------------------------------------------------------|
d|------------------------------------------------------|
a|------------------------------------------------------|
e|------------------------------------------------------|
                       For eternity...          









NOTE:

* It is more advisable to play it like this:

   Cm          CmMaj7/B    Cm7/Bb      Gm/Bb       Gm
E|------------------------------------------------------------------------------------|
b|-------1-----------1-----------1--------------------------------------------------3-|
g|----0-----0-----0-----0-----0-----0--------0-----------0-----3-----0-----0--2--3----|
d|----------------------------------------0-----0-----0-----0-----0-----0-----------0-|
a|-3-----------2-----------1-----------1--------------------------------------0--1----|
e|-------------------------------------------------3-----------------------3----------|


    Cm          CmMaj7/B    Cm7/Bb      Eb                      F
E|--------------------------------------------------3-----------------1-----5-----1-----|
b|--------1-----------1-----------1-----------4-----------4--------1-----1-----1-----1--|
g|-----0-----0-----0-----0-----0-----0-----3-----3-----3-----3--------------------------|
d|--------------------------------------1-----------------------3-----------------------|
a|--3-----------2-----------1-----------------------------------------------------------|
e|--------------------------------------------------------------------------------------|



***  Repeat this a few times: (according to the song, it's repeated 8 times)

E|-----|
b|--4--|
g|-----|
d|--1--|
a|-----|
e|-----|


~    Repeat *** for a few times then:

E|-----------1--|
b|--1--3--4-----|
g|--------------|
d|-----0--1--3--|
a|--3-----------|
e|--------------|

Try plucking it slightly hard
  development and support by
dmitry ivanov