rock
 
|tablatures   |lyrics   |discussion forums   |more tabs @ XGuitar.com

Robbie_williams tabs

Cursed bass tab

Robbie Williams
Cursed
Tabbed by Maxi (maxx8711@aol.com)

Main Riff:
G|--------------------------| 2x
D|--------------------2-4---|
A|--(5)-/22222-2-5-22-------|
E|--------------------------|

G|---------------------| 1x
D|---------------0-2---|
A|--00000-0-3-00-------|
E|---------------------|

G|-----------------------| 1x
A|----------------7<>9---|
D|--77777-7-10-77--------|
E|-----------------------|


Chorus - Part I:
G|-------------|-------------|-----------|-------------|
D|-------------|-------------|--5555555--|-------------|
A|--5555/5555--|--222222222--|-----------|--777777777--|
E|-------------|-------------|-----------|-------------|

Part II:
G|-------------|-------------|-----------|-------------|
D|-------------|-------------|-----------|--55/555/55--|
A|--555555555--|--999999999--|--3333/33--|-------------|
E|-------------|-------------|-----------|-------------|


Fill after low-voiced Part:
G|---------------|
D|---------------|
A|--/777/77-77---|
E|---------------|
  development and support by
dmitry ivanov