rock
 
|tablatures   |lyrics   |discussion forums   |more tabs @ XGuitar.com

Robbie_williams tabs

Better Man bass tab

Author: Robbie Williams 
Title: Better Man
Album: Sing When Youíre Winning 
Tabbed by: Gua Ŗ  
E-mail: guadli@icqmail.com


No bass, no drums until...


Go easy on my conscience...

G|------------|------------|------------|------------|
D|------------|------------|------------|------------|
A|-9-9-9---9--|-6-6-6---6--|-2-2-2---2--|-4-4----4~--|
E|-------9----|-------6----|-------2----|------------|

Rest assured my Angeeeels...

G|------------|------------|------------|------------|
D|------------|------------|------------|------------|
A|-9-9-9---9--|-6-6-6---6--|-2-2-2---2--|-4-4----4~--|
E|-------9----|-------6----|-------2----|------------|


As my soul heals the shame...


G|------------|------------|------------|------------|
D|------------|------------|-4-4-4---4--|------------|
A|-6-6-6---6--|-4-4-4---4--|-------4----|-6-6-6---6--|
E|-------6----|-------4----|------------|-------6----|

G|------------|------------|
D|------------|------------|
A|-2-2-2---2--|-4-4----4~--|
E|-------2----|------------|

G|--------------|
D|-4/6\4-------4|
A|-------6-4-6--|
E|--------------|

Once youíve found that lover...

G|------------|------------|------------|------------|
D|-4--4--4--4-|------------|------------|------------|
A|------------|-4--4--4--4-|-2--2--2ó-2-|-4--4--4--4-|
E|------------|------------|------------|------------|


G|------------|------------|------------|------------|
D|-4--4--4--4-|------------|------------|------------|
A|------------|-4--4--4--4-|-2--2--2ó-2-|-6~----4~---|
E|------------|------------|------------|------------|

Send someone to love me...

G|------------|------------|------------|------------|
D|------------|------------|------------|------------|
A|-9-9-9---9--|-6-6-6---6--|-2-2-2---2--|-4-4----4~--|
E|-------9----|-------6----|-------2----|------------|

Give me endless summer...

G|------------|------------|------------|------------|
D|------------|------------|------------|------------|
A|-9-9-9---9--|-6-6-6---6--|-2-2-2---2--|-4-4----4~--|
E|-------9----|-------6----|-------2----|------------|


As my soul heals the shame...

G|------------|------------|------------|------------|
D|------------|------------|-4-4-4---4--|------------|
A|-6-6-6---6--|-4-4-4---4--|-------4----|-6-6-6---6--|
E|-------6----|-------4----|------------|-------6----|

G|------------|------------|
D|------------|------------|
A|-2-2-2---2--|-4-4----4~--|
E|-------2----|------------|

And Iím not sure about this part, but oh well...

G|-9-11-9----------------------------|
D|--------9-11-9---------------------|
A|---------------9-11-9---------9~---|
E|---------------------9-11-9--------|


Ok, thatís it! Enjoy!

For any comments, suggestions, corrections: guadli@icqmail.com
  development and support by
dmitry ivanov