rock
 
|tablatures   |lyrics   |discussion forums   |more tabs @ XGuitar.com

Rem tabs

Undertow guitar tab

UNDERTOW

UNDERTOW (road movie version)
This was posted on the 'Underneath the Bunker' Hotline server
From: Michael Ryan Bannon (mrbannon@undergrad.math.uwaterloo.ca)

24.92.235.70 is the adress, but you need the latest version of 'Hotline'

chords:

    E5  D5  F#  C#m  A5
e|--0---x---x----0---0
B|--0---3---x----0---x
G|--x---2---3----6---2
D|--2---0---4----6---2
A|--2---x---4----4---0
E|--0---x---2----x---x      


riff 1a                                    
E||----------------------|---------------------|--------------------|
B||----------------------|---------------------|--------------------|
G||----------------------|---------------------|--------------------|
D||--4h---6p---4---------|--4--------4----4/---|--7----7------------|
A||--0---------0----7----|--0--------0----0----|-------0------------|
E||----------------------|---------------------|--------------------|


riff 1b                                                   
----------------------|---------------------|------------||
----------------------|---------------------|------------||
----------------------|--2--------2----2----|------------||
--4h---6p---4---------|--2--------2----2h---|--4----0----||
--0---------0----7----|--0--------0----0----|-------0----||
----------------------|---------------------|------------||



       riff 2a                                            
E||----------------------|----------------------|-------||
B||----------------------|----------------------|-------||
G||----------------------|----------------------|-------||
D||--6\---4----4----0----|--4----4----4/---7----|--7----||
A||--0---------0----0----|--0----0----0---------|--0----||
E||----------------------|----------------------|-------||



              riff 2b                                    
E||----------------------|----------------------|-------||
B||----------------------|----------------------|-------||
G||----------------------|--2----2----2---------|-------||
D||--6\---4----4----0----|--2----2----2h---4----|--0----||
A||--0---------0----0----|--0----0----0---------|--0----||
E||----------------------|----------------------|-------||

chorus:
E5 A5    E5    A5
    I'm drowning

bridge
F# D5(x3) C#m(apreggiated)
F# D5(x3) C#m( "" )

outro:
C#m apregiated repeatedly



  development and support by
dmitry ivanov