rock
 
|tablatures   |lyrics   |discussion forums   |more tabs @ XGuitar.com

Rem tabs

Suspicion bass tab

REM
Suspicion
Bass Tab by Joshua J.B. Smith (eyedunno@fuse.net)

(Note: listen to the song for the rhythm)

 
Verse (Repeat several times):
G:---0-----------------------------|
D:---------0----------------------.|
A:------1-----------------1-------.|
E:------------3--1--3--3-----3--1--|



                   "Can't you see..."
G:--------------|-----------------------------|--------------|
D:--------------|--------2--3--3--0--3--3--0--|--------------|
A:--------------|-----------------------------|--------------|
E:--3--3--3--3--|--1--1-----------------------|--3--3--3--3--|
                                                                        
 
Chorus (Repeat X 3 minus the last note on the last repeat):
G:---------------------||--|
D:--------------------.||--|
A:--0--0--2--0--------.||--|
E:--------------2--2---||--|     


End of Second Chorus:
G:-----------|
D:--0--0--0--|
A:-----------|
E:-----------|


                         "Look into my eyes..."
G:-------------------------------------------------------------------------|
D:-------------------------------------------------------------------------|
A:--1--1--1--0--0--0--2--3--3--3--0-----------1--1--0--0--0----------------|
E:-----------------------------------3--3--3-----------------1--1--1--(etc)|


Outro:
G:-----------------------|
D:-----------------0--0--|
A:--0--2--3--2-----------|
E:--------------3--------|
  development and support by
dmitry ivanov