rock
 
|tablatures   |lyrics   |discussion forums   |more tabs @ XGuitar.com

Rem tabs

So Fast So Numb bass tab

REM
So Fast So Numb

Bass Tab by Joshua J.B. Smith (eyedunno@computron.net)

(Note: listen to the song for the real rhythm)


"Intro":
G:-------|
D:--12\--|
A:-------|
E:-------|


Verse 1 & 3:
G:---------------------------------|
D:---------------------------------|
A:--5--5\-----------3--3--3--------|
E:---------1--1--3-----------3--3--|


Verse 2:
G:------------------------------------|
D:------------------------------------|
A:--5--5\-----------3--3--3--0--3--0--|
E:---------1--1--3--------------------|


Verse 4:
G:------------------------5--3--2--0--|
D:------------------------------------|
A:--5--5\-----------3--3--------------|
E:---------1--1--3--------------------|


Pre-chorus
G:---------------------------------|
D:-----3--2--0--------5--0--5--2--.|
A:--------------3-----------------.|
E:--1--------------3---------------|


Chorus:
G:--------------------------------------
D:--2--2--0--------0--5--5--0--0--0-----
A:-----------3--3--------------------2--
E:--------------------------------------

-----------------------------------------
--2--2--0--------3--3-----------------0--
-----------3--3--------3--3--3--3--3-----
-----------------------------------------

-----------------------------------------------------------------------|
--2--2--0--------0--5--5--0--0-----------------------------------------|
-----------3--3-----------------3--3--3--0--3--0--3--3--3--3--0--3--3--|
-----------------------------------------------------------------------|
  development and support by
dmitry ivanov