rock
 
|tablatures   |lyrics   |discussion forums   |more tabs @ XGuitar.com

Rem tabs

So Central Rain bass tab

#

SO CENTRAL RAIN

Transcribed by Bo Bech Christensen and  Jakob73@hum.auc.dk.

Verse:
------------------------4--------3--3---2--0--2--0--
-------------2--2----------2------------------------
3--3-----3------------------------------------------
------3---------------------------------------------


-------------------------------------------------------------I-------------
-3---0-------------------------------------------------------I-------------
---------3---3-----------3---3----------------3--3---------3-I----0--2--3--
-----------------3--3-------------6---6------------3--3------I-3-----------


----------------------------
------------2---3----0--etc-
------0---------------------
-3--------------------------


-5--5--5---7--5--9--9--7--5--5--5--5--5--5--7--7---5------------------
----------------------------------------------------------------------
-------------------------------------------------------------0--2---3-
---------------------------------------------------------3------------

                                           Last time:
-----0------2---------------0----0--0--0h2-----0--0-----------0--0--0h2------0-
-0h2---2--------------0h2----2--------------2---------2---0---------------2----
---------------0-etc-----------------------------------------------------------
-------------------------------------------------------------------------------

Listen to the song and fit these parts in.
  development and support by
dmitry ivanov